  0
SECTION
  2
HEADER
  9
$ACADVER
  1
AC1018
  9
$ACADMAINTVER
 70
   104
  9
$DWGCODEPAGE
  3
ANSI_1252
  9
$LASTSAVEDBY
  1
Victoria
  9
$INSBASE
 10
0.0
 20
0.0
 30
0.0
  9
$EXTMIN
 10
-128.5286375427413
 20
-245.7081811333073
 30
-0.0015258207003583
  9
$EXTMAX
 10
2972.964758780657
 20
1080.108867797854
 30
0.0000000349246037
  9
$LIMMIN
 10
0.0
 20
0.0
  9
$LIMMAX
 10
420.0
 20
297.0
  9
$ORTHOMODE
 70
     0
  9
$REGENMODE
 70
     1
  9
$FILLMODE
 70
     1
  9
$QTEXTMODE
 70
     0
  9
$MIRRTEXT
 70
     0
  9
$LTSCALE
 40
1.0
  9
$ATTMODE
 70
     1
  9
$TEXTSIZE
 40
2.5
  9
$TRACEWID
 40
1.0
  9
$TEXTSTYLE
  7
Standard
  9
$CLAYER
  8
0
  9
$CELTYPE
  6
ByLayer
  9
$CECOLOR
 62
   256
  9
$CELTSCALE
 40
1.0
  9
$DISPSILH
 70
     0
  9
$DIMSCALE
 40
1.0
  9
$DIMASZ
 40
2.5
  9
$DIMEXO
 40
0.625
  9
$DIMDLI
 40
3.75
  9
$DIMRND
 40
0.0
  9
$DIMDLE
 40
0.0
  9
$DIMEXE
 40
1.25
  9
$DIMTP
 40
0.0
  9
$DIMTM
 40
0.0
  9
$DIMTXT
 40
2.5
  9
$DIMCEN
 40
2.5
  9
$DIMTSZ
 40
0.0
  9
$DIMTOL
 70
     0
  9
$DIMLIM
 70
     0
  9
$DIMTIH
 70
     0
  9
$DIMTOH
 70
     0
  9
$DIMSE1
 70
     0
  9
$DIMSE2
 70
     0
  9
$DIMTAD
 70
     1
  9
$DIMZIN
 70
     8
  9
$DIMBLK
  1

  9
$DIMASO
 70
     1
  9
$DIMSHO
 70
     1
  9
$DIMPOST
  1

  9
$DIMAPOST
  1

  9
$DIMALT
 70
     0
  9
$DIMALTD
 70
     3
  9
$DIMALTF
 40
0.03937007874016
  9
$DIMLFAC
 40
1.0
  9
$DIMTOFL
 70
     1
  9
$DIMTVP
 40
0.0
  9
$DIMTIX
 70
     0
  9
$DIMSOXD
 70
     0
  9
$DIMSAH
 70
     0
  9
$DIMBLK1
  1

  9
$DIMBLK2
  1

  9
$DIMSTYLE
  2
ISO-25
  9
$DIMCLRD
 70
     0
  9
$DIMCLRE
 70
     0
  9
$DIMCLRT
 70
     0
  9
$DIMTFAC
 40
1.0
  9
$DIMGAP
 40
0.625
  9
$DIMJUST
 70
     0
  9
$DIMSD1
 70
     0
  9
$DIMSD2
 70
     0
  9
$DIMTOLJ
 70
     0
  9
$DIMTZIN
 70
     8
  9
$DIMALTZ
 70
     0
  9
$DIMALTTZ
 70
     0
  9
$DIMUPT
 70
     0
  9
$DIMDEC
 70
     2
  9
$DIMTDEC
 70
     2
  9
$DIMALTU
 70
     2
  9
$DIMALTTD
 70
     3
  9
$DIMTXSTY
  7
Standard
  9
$DIMAUNIT
 70
     0
  9
$DIMADEC
 70
     0
  9
$DIMALTRND
 40
0.0
  9
$DIMAZIN
 70
     0
  9
$DIMDSEP
 70
    44
  9
$DIMATFIT
 70
     3
  9
$DIMFRAC
 70
     0
  9
$DIMLDRBLK
  1

  9
$DIMLUNIT
 70
     2
  9
$DIMLWD
 70
    -2
  9
$DIMLWE
 70
    -2
  9
$DIMTMOVE
 70
     0
  9
$LUNITS
 70
     2
  9
$LUPREC
 70
     4
  9
$SKETCHINC
 40
1.0
  9
$FILLETRAD
 40
0.0
  9
$AUNITS
 70
     0
  9
$AUPREC
 70
     0
  9
$MENU
  1
.
  9
$ELEVATION
 40
0.0
  9
$PELEVATION
 40
0.0
  9
$THICKNESS
 40
0.0
  9
$LIMCHECK
 70
     0
  9
$CHAMFERA
 40
0.0
  9
$CHAMFERB
 40
0.0
  9
$CHAMFERC
 40
0.0
  9
$CHAMFERD
 40
0.0
  9
$SKPOLY
 70
     0
  9
$TDCREATE
 40
2457560.718854873
  9
$TDUCREATE
 40
2457560.635521540
  9
$TDUPDATE
 40
2457573.537241262
  9
$TDUUPDATE
 40
2457573.453907929
  9
$TDINDWG
 40
0.0502425694
  9
$TDUSRTIMER
 40
0.0502415972
  9
$USRTIMER
 70
     1
  9
$ANGBASE
 50
0.0
  9
$ANGDIR
 70
     0
  9
$PDMODE
 70
     0
  9
$PDSIZE
 40
0.0
  9
$PLINEWID
 40
0.0
  9
$SPLFRAME
 70
     0
  9
$SPLINETYPE
 70
     6
  9
$SPLINESEGS
 70
     8
  9
$HANDSEED
  5
621
  9
$SURFTAB1
 70
     6
  9
$SURFTAB2
 70
     6
  9
$SURFTYPE
 70
     6
  9
$SURFU
 70
     6
  9
$SURFV
 70
     6
  9
$UCSBASE
  2

  9
$UCSNAME
  2

  9
$UCSORG
 10
0.0
 20
0.0
 30
0.0
  9
$UCSXDIR
 10
1.0
 20
0.0
 30
0.0
  9
$UCSYDIR
 10
0.0
 20
1.0
 30
0.0
  9
$UCSORTHOREF
  2

  9
$UCSORTHOVIEW
 70
     0
  9
$UCSORGTOP
 10
0.0
 20
0.0
 30
0.0
  9
$UCSORGBOTTOM
 10
0.0
 20
0.0
 30
0.0
  9
$UCSORGLEFT
 10
0.0
 20
0.0
 30
0.0
  9
$UCSORGRIGHT
 10
0.0
 20
0.0
 30
0.0
  9
$UCSORGFRONT
 10
0.0
 20
0.0
 30
0.0
  9
$UCSORGBACK
 10
0.0
 20
0.0
 30
0.0
  9
$PUCSBASE
  2

  9
$PUCSNAME
  2

  9
$PUCSORG
 10
0.0
 20
0.0
 30
0.0
  9
$PUCSXDIR
 10
1.0
 20
0.0
 30
0.0
  9
$PUCSYDIR
 10
0.0
 20
1.0
 30
0.0
  9
$PUCSORTHOREF
  2

  9
$PUCSORTHOVIEW
 70
     0
  9
$PUCSORGTOP
 10
0.0
 20
0.0
 30
0.0
  9
$PUCSORGBOTTOM
 10
0.0
 20
0.0
 30
0.0
  9
$PUCSORGLEFT
 10
0.0
 20
0.0
 30
0.0
  9
$PUCSORGRIGHT
 10
0.0
 20
0.0
 30
0.0
  9
$PUCSORGFRONT
 10
0.0
 20
0.0
 30
0.0
  9
$PUCSORGBACK
 10
0.0
 20
0.0
 30
0.0
  9
$USERI1
 70
     0
  9
$USERI2
 70
     0
  9
$USERI3
 70
     0
  9
$USERI4
 70
     0
  9
$USERI5
 70
     0
  9
$USERR1
 40
0.0
  9
$USERR2
 40
0.0
  9
$USERR3
 40
0.0
  9
$USERR4
 40
0.0
  9
$USERR5
 40
0.0
  9
$WORLDVIEW
 70
     1
  9
$SHADEDGE
 70
     3
  9
$SHADEDIF
 70
    70
  9
$TILEMODE
 70
     1
  9
$MAXACTVP
 70
    64
  9
$PINSBASE
 10
0.0
 20
0.0
 30
0.0
  9
$PLIMCHECK
 70
     0
  9
$PEXTMIN
 10
0.0
 20
0.0
 30
0.0
  9
$PEXTMAX
 10
0.0
 20
0.0
 30
0.0
  9
$PLIMMIN
 10
0.0
 20
0.0
  9
$PLIMMAX
 10
12.0
 20
9.0
  9
$UNITMODE
 70
     0
  9
$VISRETAIN
 70
     1
  9
$PLINEGEN
 70
     0
  9
$PSLTSCALE
 70
     1
  9
$TREEDEPTH
 70
  3020
  9
$CMLSTYLE
  2
Standard
  9
$CMLJUST
 70
     0
  9
$CMLSCALE
 40
20.0
  9
$PROXYGRAPHICS
 70
     1
  9
$MEASUREMENT
 70
     1
  9
$CELWEIGHT
370
    -1
  9
$ENDCAPS
280
     0
  9
$JOINSTYLE
280
     0
  9
$LWDISPLAY
290
     0
  9
$INSUNITS
 70
     4
  9
$HYPERLINKBASE
  1

  9
$STYLESHEET
  1

  9
$XEDIT
290
     1
  9
$CEPSNTYPE
380
     0
  9
$PSTYLEMODE
290
     1
  9
$FINGERPRINTGUID
  2
{369E8F98-8E49-45AB-A037-86087A4485C9}
  9
$VERSIONGUID
  2
{F2F4AF4E-A57C-44A5-AFC5-5038999A3A02}
  9
$EXTNAMES
290
     1
  9
$PSVPSCALE
 40
0.0
  9
$OLESTARTUP
290
     0
  9
$SORTENTS
280
   127
  9
$INDEXCTL
280
     0
  9
$HIDETEXT
280
     1
  9
$XCLIPFRAME
290
     0
  9
$HALOGAP
280
     0
  9
$OBSCOLOR
 70
   257
  9
$OBSLTYPE
280
     0
  9
$INTERSECTIONDISPLAY
280
     0
  9
$INTERSECTIONCOLOR
 70
   257
  9
$DIMASSOC
280
     2
  9
$PROJECTNAME
  1

  0
ENDSEC
  0
SECTION
  2
CLASSES
  0
CLASS
  1
ACDBDICTIONARYWDFLT
  2
AcDbDictionaryWithDefault
  3
ObjectDBX Classes
 90
        0
 91
        1
280
     0
281
     0
  0
CLASS
  1
DICTIONARYVAR
  2
AcDbDictionaryVar
  3
ObjectDBX Classes
 90
        0
 91
       14
280
     0
281
     0
  0
CLASS
  1
TABLESTYLE
  2
AcDbTableStyle
  3
ObjectDBX Classes
 90
     4095
 91
        1
280
     0
281
     0
  0
CLASS
  1
MATERIAL
  2
AcDbMaterial
  3
ObjectDBX Classes
 90
     1153
 91
        3
280
     0
281
     0
  0
CLASS
  1
VISUALSTYLE
  2
AcDbVisualStyle
  3
ObjectDBX Classes
 90
     4095
 91
       24
280
     0
281
     0
  0
CLASS
  1
SCALE
  2
AcDbScale
  3
ObjectDBX Classes
 90
     1153
 91
       17
280
     0
281
     0
  0
CLASS
  1
MLEADERSTYLE
  2
AcDbMLeaderStyle
  3
ACDB_MLEADERSTYLE_CLASS
 90
     4095
 91
        2
280
     0
281
     0
  0
CLASS
  1
CELLSTYLEMAP
  2
AcDbCellStyleMap
  3
ObjectDBX Classes
 90
     1152
 91
        1
280
     0
281
     0
  0
CLASS
  1
EXACXREFPANELOBJECT
  2
ExAcXREFPanelObject
  3
EXAC_ESW
 90
     1025
 91
        0
280
     0
281
     0
  0
CLASS
  1
NPOCOLLECTION
  2
AcDbImpNonPersistentObjectsCollection
  3
ObjectDBX Classes
 90
     1153
 91
        0
280
     0
281
     0
  0
CLASS
  1
LAYER_INDEX
  2
AcDbLayerIndex
  3
ObjectDBX Classes
 90
        0
 91
        0
280
     0
281
     0
  0
CLASS
  1
SPATIAL_INDEX
  2
AcDbSpatialIndex
  3
ObjectDBX Classes
 90
        0
 91
        0
280
     0
281
     0
  0
CLASS
  1
IDBUFFER
  2
AcDbIdBuffer
  3
ObjectDBX Classes
 90
        0
 91
        0
280
     0
281
     0
  0
CLASS
  1
ACDBSECTIONVIEWSTYLE
  2
AcDbSectionViewStyle
  3
ObjectDBX Classes
 90
     1025
 91
        1
280
     0
281
     0
  0
CLASS
  1
ACDBDETAILVIEWSTYLE
  2
AcDbDetailViewStyle
  3
ObjectDBX Classes
 90
     1025
 91
        1
280
     0
281
     0
  0
CLASS
  1
SORTENTSTABLE
  2
AcDbSortentsTable
  3
ObjectDBX Classes
 90
        0
 91
        0
280
     0
281
     0
  0
ENDSEC
  0
SECTION
  2
TABLES
  0
TABLE
  2
VPORT
  5
8
330
0
100
AcDbSymbolTable
 70
     1
  0
VPORT
  5
EA
330
8
100
AcDbSymbolTableRecord
100
AcDbViewportTableRecord
  2
*Active
 70
     0
 10
0.0
 20
0.0
 11
1.0
 21
1.0
 12
1218.439707303921
 22
280.9181433472625
 13
0.0
 23
0.0
 14
10.0
 24
10.0
 15
10.0
 25
10.0
 16
0.0
 26
0.0
 36
1.0
 17
0.0
 27
0.0
 37
0.0
 40
1567.912926660903
 41
2.478082191780822
 42
50.0
 43
0.0
 44
0.0
 50
0.0
 51
0.0
 71
     0
 72
  1000
 73
     1
 74
     3
 75
     0
 76
     0
 77
     0
 78
     0
281
     0
 65
     1
110
0.0
120
0.0
130
0.0
111
1.0
121
0.0
131
0.0
112
0.0
122
1.0
132
0.0
 79
     0
146
0.0
1001
ACAD_NAV_VCDISPLAY
1070
     3
  0
ENDTAB
  0
TABLE
  2
LTYPE
  5
5
330
0
100
AcDbSymbolTable
 70
     2
  0
LTYPE
  5
14
330
5
100
AcDbSymbolTableRecord
100
AcDbLinetypeTableRecord
  2
ByBlock
 70
     0
  3

 72
    65
 73
     0
 40
0.0
  0
LTYPE
  5
15
330
5
100
AcDbSymbolTableRecord
100
AcDbLinetypeTableRecord
  2
ByLayer
 70
     0
  3

 72
    65
 73
     0
 40
0.0
  0
LTYPE
  5
16
330
5
100
AcDbSymbolTableRecord
100
AcDbLinetypeTableRecord
  2
Continuous
 70
     0
  3
Solid line
 72
    65
 73
     0
 40
0.0
  0
ENDTAB
  0
TABLE
  2
LAYER
  5
2
102
{ACAD_XDICTIONARY
360
1FF
102
}
330
0
100
AcDbSymbolTable
 70
     6
  0
LAYER
  5
10
102
{ACAD_XDICTIONARY
360
13C
102
}
330
2
100
AcDbSymbolTableRecord
100
AcDbLayerTableRecord
  2
0
 70
     0
 62
     7
  6
Continuous
370
    -3
390
F
  0
LAYER
  5
47E
330
2
100
AcDbSymbolTableRecord
100
AcDbLayerTableRecord
  2
exterior cut
 70
     0
 62
     6
  6
Continuous
370
    -3
390
F
1001
AcAecLayerStandard
1000

1000

1001
AcCmTransparency
1071
        0
  0
LAYER
  5
481
330
2
100
AcDbSymbolTableRecord
100
AcDbLayerTableRecord
  2
interior cut 1
 70
     0
 62
   250
  6
Continuous
370
    -3
390
F
1001
AcAecLayerStandard
1000

1000

1001
AcCmTransparency
1071
        0
  0
LAYER
  5
482
330
2
100
AcDbSymbolTableRecord
100
AcDbLayerTableRecord
  2
interior cut 2
 70
     0
 62
     1
  6
Continuous
370
    -3
390
F
1001
AcAecLayerStandard
1000

1000

1001
AcCmTransparency
1071
        0
  0
LAYER
  5
483
330
2
100
AcDbSymbolTableRecord
100
AcDbLayerTableRecord
  2
engrave
 70
     0
 62
     4
  6
Continuous
370
    -3
390
F
1001
AcAecLayerStandard
1000

1000

1001
AcCmTransparency
1071
        0
  0
LAYER
  5
5E0
330
2
100
AcDbSymbolTableRecord
100
AcDbLayerTableRecord
  2
interior cut 3
 70
     0
 62
     5
  6
Continuous
370
    -3
390
F
1001
AcAecLayerStandard
1000

1000

1001
AcCmTransparency
1071
        0
  0
ENDTAB
  0
TABLE
  2
STYLE
  5
3
330
0
100
AcDbSymbolTable
 70
     2
  0
STYLE
  5
11
330
3
100
AcDbSymbolTableRecord
100
AcDbTextStyleTableRecord
  2
Standard
 70
     0
 40
0.0
 41
1.0
 50
0.0
 71
     0
 42
2.5
  3
arial.ttf
  4

1001
ACAD
1000
Arial
1071
       34
  0
STYLE
  5
132
330
3
100
AcDbSymbolTableRecord
100
AcDbTextStyleTableRecord
  2
Anotativo
 70
     0
 40
0.0
 41
1.0
 50
0.0
 71
     0
 42
2.5
  3
arial.ttf
  4

1001
AcadAnnotative
1000
AnnotativeData
1002
{
1070
     1
1070
     1
1002
}
1001
ACAD
1000
Arial
1071
       34
  0
ENDTAB
  0
TABLE
  2
VIEW
  5
6
330
0
100
AcDbSymbolTable
 70
     2
  0
ENDTAB
  0
TABLE
  2
UCS
  5
7
330
0
100
AcDbSymbolTable
 70
     0
  0
ENDTAB
  0
TABLE
  2
APPID
  5
9
330
0
100
AcDbSymbolTable
 70
    11
  0
APPID
  5
12
330
9
100
AcDbSymbolTableRecord
100
AcDbRegAppTableRecord
  2
ACAD
 70
     0
  0
APPID
  5
9E
330
9
100
AcDbSymbolTableRecord
100
AcDbRegAppTableRecord
  2
ACAD_PSEXT
 70
     0
  0
APPID
  5
133
330
9
100
AcDbSymbolTableRecord
100
AcDbRegAppTableRecord
  2
AcadAnnoPO
 70
     0
  0
APPID
  5
134
330
9
100
AcDbSymbolTableRecord
100
AcDbRegAppTableRecord
  2
AcadAnnotative
 70
     0
  0
APPID
  5
135
330
9
100
AcDbSymbolTableRecord
100
AcDbRegAppTableRecord
  2
ACAD_DSTYLE_DIMJAG
 70
     0
  0
APPID
  5
136
330
9
100
AcDbSymbolTableRecord
100
AcDbRegAppTableRecord
  2
ACAD_DSTYLE_DIMTALN
 70
     0
  0
APPID
  5
165
330
9
100
AcDbSymbolTableRecord
100
AcDbRegAppTableRecord
  2
ACAD_MLEADERVER
 70
     0
  0
APPID
  5
217
330
9
100
AcDbSymbolTableRecord
100
AcDbRegAppTableRecord
  2
ACAD_NAV_VCDISPLAY
 70
     0
  0
APPID
  5
333
330
9
100
AcDbSymbolTableRecord
100
AcDbRegAppTableRecord
  2
ACAD_EXEMPT_FROM_CAD_STANDARDS
 70
     0
  0
APPID
  5
47F
330
9
100
AcDbSymbolTableRecord
100
AcDbRegAppTableRecord
  2
AcAecLayerStandard
 70
     0
  0
APPID
  5
480
330
9
100
AcDbSymbolTableRecord
100
AcDbRegAppTableRecord
  2
AcCmTransparency
 70
     0
  0
ENDTAB
  0
TABLE
  2
DIMSTYLE
  5
A
330
0
100
AcDbSymbolTable
 70
     4
100
AcDbDimStyleTable
 71
     2
340
27
340
137
  0
DIMSTYLE
105
1B0
330
A
100
AcDbSymbolTableRecord
100
AcDbDimStyleTableRecord
  2
Standard
 70
     0
340
11
  0
DIMSTYLE
105
137
330
A
100
AcDbSymbolTableRecord
100
AcDbDimStyleTableRecord
  2
Anotativo
 70
     0
 40
0.0
 41
2.5
 42
0.625
 43
3.75
 44
1.25
 73
     0
 74
     0
 77
     1
 78
     8
140
2.5
141
2.5
143
0.03937007874016
147
0.625
171
     3
172
     1
271
     2
272
     2
274
     3
278
    44
283
     0
284
     8
340
11
1001
AcadAnnotative
1000
AnnotativeData
1002
{
1070
     1
1070
     1
1002
}
1001
ACAD_DSTYLE_DIMJAG
1070
   388
1040
1.5
1001
ACAD_DSTYLE_DIMTALN
1070
   392
1070
     0
  0
DIMSTYLE
105
27
330
A
100
AcDbSymbolTableRecord
100
AcDbDimStyleTableRecord
  2
ISO-25
 70
     0
 41
2.5
 42
0.625
 43
3.75
 44
1.25
 73
     0
 74
     0
 77
     1
 78
     8
140
2.5
141
2.5
143
0.03937007874016
147
0.625
171
     3
172
     1
271
     2
272
     2
274
     3
278
    44
283
     0
284
     8
340
11
  0
ENDTAB
  0
TABLE
  2
BLOCK_RECORD
  5
1
330
0
100
AcDbSymbolTable
 70
     2
  0
BLOCK_RECORD
  5
1F
102
{ACAD_XDICTIONARY
360
1CE
102
}
330
1
100
AcDbSymbolTableRecord
100
AcDbBlockTableRecord
  2
*Model_Space
340
22
  0
BLOCK_RECORD
  5
D2
330
1
100
AcDbSymbolTableRecord
100
AcDbBlockTableRecord
  2
*Paper_Space
340
D3
  0
BLOCK_RECORD
  5
D6
330
1
100
AcDbSymbolTableRecord
100
AcDbBlockTableRecord
  2
*Paper_Space0
340
D7
  0
ENDTAB
  0
ENDSEC
  0
SECTION
  2
BLOCKS
  0
BLOCK
  5
20
330
1F
100
AcDbEntity
  8
0
100
AcDbBlockBegin
  2
*Model_Space
 70
     0
 10
0.0
 20
0.0
 30
0.0
  3
*Model_Space
  1

  0
ENDBLK
  5
21
330
1F
100
AcDbEntity
  8
0
100
AcDbBlockEnd
  0
BLOCK
  5
D4
330
D2
100
AcDbEntity
 67
     1
  8
0
100
AcDbBlockBegin
  2
*Paper_Space
 70
     0
 10
0.0
 20
0.0
 30
0.0
  3
*Paper_Space
  1

  0
ENDBLK
  5
D5
330
D2
100
AcDbEntity
 67
     1
  8
0
100
AcDbBlockEnd
  0
BLOCK
  5
D8
330
D6
100
AcDbEntity
 67
     1
  8
0
100
AcDbBlockBegin
  2
*Paper_Space0
 70
     0
 10
0.0
 20
0.0
 30
0.0
  3
*Paper_Space0
  1

  0
ENDBLK
  5
D9
330
D6
100
AcDbEntity
 67
     1
  8
0
100
AcDbBlockEnd
  0
ENDSEC
  0
SECTION
  2
ENTITIES
  0
LWPOLYLINE
  5
2BE
330
1F
100
AcDbEntity
  8
interior cut 3
100
AcDbPolyline
 90
        4
 70
     1
 43
0.0
 10
176.0833433792737
 20
114.6077583257155
 10
195.1333433792708
 20
114.6077583257155
 10
195.1333433792708
 20
111.4077583257156
 10
176.0833433792737
 20
111.4077583257156
  0
LWPOLYLINE
  5
2BF
330
1F
100
AcDbEntity
  8
interior cut 3
100
AcDbPolyline
 90
        4
 70
     1
 43
0.0
 10
204.9333433792751
 20
114.6077583257155
 10
215.1333433792708
 20
114.6077583257155
 10
215.1333433792708
 20
111.4077583257156
 10
204.9333433792751
 20
111.4077583257156
  0
LWPOLYLINE
  5
2C0
330
1F
100
AcDbEntity
  8
interior cut 3
100
AcDbPolyline
 90
        4
 70
     1
 43
0.0
 10
224.9333433792751
 20
114.6077583257155
 10
235.1333433792707
 20
114.6077583257155
 10
235.1333433792707
 20
111.4077583257156
 10
224.9333433792751
 20
111.4077583257156
  0
LWPOLYLINE
  5
2C1
330
1F
100
AcDbEntity
  8
interior cut 3
100
AcDbPolyline
 90
        4
 70
     1
 43
0.0
 10
244.9333433792752
 20
114.6077583257155
 10
255.1333433792708
 20
114.6077583257155
 10
255.1333433792708
 20
111.4077583257156
 10
244.9333433792752
 20
111.4077583257156
  0
LWPOLYLINE
  5
2C2
330
1F
100
AcDbEntity
  8
interior cut 3
100
AcDbPolyline
 90
        4
 70
     1
 43
0.0
 10
264.9333433792752
 20
114.6077583257155
 10
275.1333433792709
 20
114.6077583257155
 10
275.1333433792709
 20
111.4077583257156
 10
264.9333433792752
 20
111.4077583257156
  0
LWPOLYLINE
  5
2C3
330
1F
100
AcDbEntity
  8
interior cut 3
100
AcDbPolyline
 90
        4
 70
     1
 43
0.0
 10
284.9333433792752
 20
114.6077583257155
 10
295.1333433792708
 20
114.6077583257155
 10
295.1333433792708
 20
111.4077583257156
 10
284.9333433792752
 20
111.4077583257156
  0
LWPOLYLINE
  5
2C4
330
1F
100
AcDbEntity
  8
interior cut 3
100
AcDbPolyline
 90
        4
 70
     1
 43
0.0
 10
304.9333433792753
 20
114.6077583257155
 10
315.1333433792709
 20
114.6077583257155
 10
315.1333433792709
 20
111.4077583257156
 10
304.9333433792753
 20
111.4077583257156
  0
LWPOLYLINE
  5
2C5
330
1F
100
AcDbEntity
  8
interior cut 3
100
AcDbPolyline
 90
        4
 70
     1
 43
0.0
 10
324.9333433792752
 20
114.6077583257155
 10
335.1333433792708
 20
114.6077583257155
 10
335.1333433792708
 20
111.4077583257156
 10
324.9333433792752
 20
111.4077583257156
  0
LWPOLYLINE
  5
2C6
330
1F
100
AcDbEntity
  8
interior cut 3
100
AcDbPolyline
 90
        4
 70
     1
 43
0.0
 10
344.9333433792752
 20
114.6077583257155
 10
355.1333433792708
 20
114.6077583257155
 10
355.1333433792708
 20
111.4077583257156
 10
344.9333433792752
 20
111.4077583257156
  0
LWPOLYLINE
  5
2C7
330
1F
100
AcDbEntity
  8
interior cut 3
100
AcDbPolyline
 90
        4
 70
     1
 43
0.0
 10
364.9333433792752
 20
114.6077583257155
 10
375.1333433792708
 20
114.6077583257155
 10
375.1333433792708
 20
111.4077583257156
 10
364.9333433792752
 20
111.4077583257156
  0
LWPOLYLINE
  5
2C8
330
1F
100
AcDbEntity
  8
interior cut 3
100
AcDbPolyline
 90
        4
 70
     1
 43
0.0
 10
384.9333433792752
 20
114.6077583257155
 10
395.1333433792708
 20
114.6077583257155
 10
395.1333433792708
 20
111.4077583257156
 10
384.9333433792752
 20
111.4077583257156
  0
LWPOLYLINE
  5
2C9
330
1F
100
AcDbEntity
  8
interior cut 3
100
AcDbPolyline
 90
        4
 70
     1
 43
0.0
 10
404.9333433792751
 20
114.6077583257155
 10
415.1333433792706
 20
114.6077583257155
 10
415.1333433792706
 20
111.4077583257156
 10
404.9333433792751
 20
111.4077583257156
  0
LWPOLYLINE
  5
2CA
330
1F
100
AcDbEntity
  8
interior cut 3
100
AcDbPolyline
 90
        4
 70
     1
 43
0.0
 10
424.9333433792751
 20
114.6077583257155
 10
435.1333433792706
 20
114.6077583257155
 10
435.1333433792706
 20
111.4077583257156
 10
424.9333433792751
 20
111.4077583257156
  0
LWPOLYLINE
  5
2CB
330
1F
100
AcDbEntity
  8
interior cut 3
100
AcDbPolyline
 90
        4
 70
     1
 43
0.0
 10
444.9333433792752
 20
114.6077583257155
 10
455.1333433792708
 20
114.6077583257155
 10
455.1333433792708
 20
111.4077583257156
 10
444.9333433792752
 20
111.4077583257156
  0
LWPOLYLINE
  5
2CC
330
1F
100
AcDbEntity
  8
interior cut 3
100
AcDbPolyline
 90
        4
 70
     1
 43
0.0
 10
464.9333433792752
 20
114.6077583257155
 10
475.1333433792708
 20
114.6077583257155
 10
475.1333433792708
 20
111.4077583257156
 10
464.9333433792752
 20
111.4077583257156
  0
LWPOLYLINE
  5
2CD
330
1F
100
AcDbEntity
  8
interior cut 3
100
AcDbPolyline
 90
        4
 70
     1
 43
0.0
 10
484.9333433792749
 20
114.6077583257155
 10
495.1333433792708
 20
114.6077583257155
 10
495.1333433792708
 20
111.4077583257156
 10
484.9333433792749
 20
111.4077583257156
  0
LWPOLYLINE
  5
2CE
330
1F
100
AcDbEntity
  8
interior cut 3
100
AcDbPolyline
 90
        4
 70
     1
 43
0.0
 10
504.933343379275
 20
114.6077583257155
 10
515.1333433792706
 20
114.6077583257155
 10
515.1333433792706
 20
111.4077583257156
 10
504.933343379275
 20
111.4077583257156
  0
LWPOLYLINE
  5
2CF
330
1F
100
AcDbEntity
  8
interior cut 3
100
AcDbPolyline
 90
        4
 70
     1
 43
0.0
 10
524.9333433792751
 20
114.6077583257155
 10
535.1333433792706
 20
114.6077583257155
 10
535.1333433792706
 20
111.4077583257156
 10
524.9333433792751
 20
111.4077583257156
  0
LWPOLYLINE
  5
2D0
330
1F
100
AcDbEntity
  8
interior cut 3
100
AcDbPolyline
 90
        4
 70
     1
 43
0.0
 10
544.9333433792751
 20
114.6077583257155
 10
555.1333433792706
 20
114.6077583257155
 10
555.1333433792706
 20
111.4077583257156
 10
544.9333433792751
 20
111.4077583257156
  0
LWPOLYLINE
  5
2D1
330
1F
100
AcDbEntity
  8
interior cut 3
100
AcDbPolyline
 90
        4
 70
     1
 43
0.0
 10
564.9333433792751
 20
114.6077583257155
 10
575.1333433792707
 20
114.6077583257155
 10
575.1333433792707
 20
111.4077583257156
 10
564.9333433792751
 20
111.4077583257156
  0
LWPOLYLINE
  5
2D2
330
1F
100
AcDbEntity
  8
interior cut 3
100
AcDbPolyline
 90
        4
 70
     1
 43
0.0
 10
584.9333433792751
 20
114.6077583257155
 10
595.1333433792707
 20
114.6077583257155
 10
595.1333433792707
 20
111.4077583257156
 10
584.9333433792751
 20
111.4077583257156
  0
LWPOLYLINE
  5
2D3
330
1F
100
AcDbEntity
  8
interior cut 3
100
AcDbPolyline
 90
        4
 70
     1
 43
0.0
 10
604.9333433792751
 20
114.6077583257155
 10
615.1333433792707
 20
114.6077583257155
 10
615.1333433792707
 20
111.4077583257156
 10
604.9333433792751
 20
111.4077583257156
  0
LWPOLYLINE
  5
2D4
330
1F
100
AcDbEntity
  8
interior cut 3
100
AcDbPolyline
 90
        4
 70
     1
 43
0.0
 10
624.933343379275
 20
114.6077583257155
 10
635.1333433792707
 20
114.6077583257155
 10
635.1333433792707
 20
111.4077583257156
 10
624.933343379275
 20
111.4077583257156
  0
LWPOLYLINE
  5
2D5
330
1F
100
AcDbEntity
  8
interior cut 3
100
AcDbPolyline
 90
        4
 70
     1
 43
0.0
 10
644.9333433792751
 20
114.6077583257155
 10
655.1333433792707
 20
114.6077583257155
 10
655.1333433792707
 20
111.4077583257156
 10
644.9333433792751
 20
111.4077583257156
  0
LWPOLYLINE
  5
2D6
330
1F
100
AcDbEntity
  8
interior cut 3
100
AcDbPolyline
 90
        4
 70
     1
 43
0.0
 10
664.9333433792751
 20
114.6077583257155
 10
675.1333433792709
 20
114.6077583257155
 10
675.1333433792709
 20
111.4077583257156
 10
664.9333433792751
 20
111.4077583257156
  0
LWPOLYLINE
  5
2D7
330
1F
100
AcDbEntity
  8
interior cut 3
100
AcDbPolyline
 90
        4
 70
     1
 43
0.0
 10
684.9333433792751
 20
114.6077583257155
 10
695.1333433792707
 20
114.6077583257155
 10
695.1333433792707
 20
111.4077583257156
 10
684.9333433792751
 20
111.4077583257156
  0
LWPOLYLINE
  5
2D8
330
1F
100
AcDbEntity
  8
interior cut 3
100
AcDbPolyline
 90
        4
 70
     1
 43
0.0
 10
176.0833433792737
 20
633.7577583257174
 10
172.8833433792744
 20
633.7577583257174
 10
172.8833433792744
 20
623.5577583257172
 10
176.0833433792737
 20
623.5577583257172
  0
LWPOLYLINE
  5
2D9
330
1F
100
AcDbEntity
  8
interior cut 3
100
AcDbPolyline
 90
        4
 70
     1
 43
0.0
 10
172.8833433792744
 20
613.7577583257174
 10
176.0833433792737
 20
613.7577583257174
 10
176.0833433792737
 20
603.5577583257174
 10
172.8833433792744
 20
603.5577583257174
  0
LWPOLYLINE
  5
2DA
330
1F
100
AcDbEntity
  8
interior cut 3
100
AcDbPolyline
 90
        4
 70
     1
 43
0.0
 10
172.8833433792744
 20
593.7577583257174
 10
176.0833433792737
 20
593.7577583257174
 10
176.0833433792737
 20
583.5577583257173
 10
172.8833433792744
 20
583.5577583257173
  0
LWPOLYLINE
  5
2DB
330
1F
100
AcDbEntity
  8
interior cut 3
100
AcDbPolyline
 90
        4
 70
     1
 43
0.0
 10
172.8833433792744
 20
573.7577583257174
 10
176.0833433792737
 20
573.7577583257174
 10
176.0833433792737
 20
563.5577583257172
 10
172.8833433792744
 20
563.5577583257172
  0
LWPOLYLINE
  5
2DC
330
1F
100
AcDbEntity
  8
interior cut 3
100
AcDbPolyline
 90
        4
 70
     1
 43
0.0
 10
172.8833433792744
 20
553.7577583257172
 10
176.0833433792737
 20
553.7577583257172
 10
176.0833433792737
 20
543.5577583257172
 10
172.8833433792744
 20
543.5577583257172
  0
LWPOLYLINE
  5
2DD
330
1F
100
AcDbEntity
  8
interior cut 3
100
AcDbPolyline
 90
        4
 70
     1
 43
0.0
 10
172.8833433792744
 20
533.7577583257171
 10
176.0833433792737
 20
533.7577583257171
 10
176.0833433792737
 20
523.5577583257174
 10
172.8833433792744
 20
523.5577583257174
  0
LWPOLYLINE
  5
2DE
330
1F
100
AcDbEntity
  8
interior cut 3
100
AcDbPolyline
 90
        4
 70
     1
 43
0.0
 10
172.8833433792744
 20
513.7577583257173
 10
176.0833433792737
 20
513.7577583257173
 10
176.0833433792737
 20
503.5577583257174
 10
172.8833433792744
 20
503.5577583257174
  0
LWPOLYLINE
  5
2DF
330
1F
100
AcDbEntity
  8
interior cut 3
100
AcDbPolyline
 90
        4
 70
     1
 43
0.0
 10
172.8833433792744
 20
493.7577583257173
 10
176.0833433792737
 20
493.7577583257173
 10
176.0833433792737
 20
483.5577583257173
 10
172.8833433792744
 20
483.5577583257173
  0
LWPOLYLINE
  5
2E0
330
1F
100
AcDbEntity
  8
interior cut 3
100
AcDbPolyline
 90
        4
 70
     1
 43
0.0
 10
172.8833433792744
 20
473.7577583257174
 10
176.0833433792737
 20
473.7577583257174
 10
176.0833433792737
 20
463.5577583257171
 10
172.8833433792744
 20
463.5577583257171
  0
LWPOLYLINE
  5
2E1
330
1F
100
AcDbEntity
  8
interior cut 3
100
AcDbPolyline
 90
        4
 70
     1
 43
0.0
 10
172.8833433792744
 20
453.7577583257172
 10
176.0833433792737
 20
453.7577583257172
 10
176.0833433792737
 20
443.5577583257173
 10
172.8833433792744
 20
443.5577583257173
  0
LWPOLYLINE
  5
2E2
330
1F
100
AcDbEntity
  8
interior cut 3
100
AcDbPolyline
 90
        4
 70
     1
 43
0.0
 10
172.8833433792744
 20
433.7577583257171
 10
176.0833433792737
 20
433.7577583257171
 10
176.0833433792737
 20
423.5577583257175
 10
172.8833433792744
 20
423.5577583257175
  0
LWPOLYLINE
  5
2E3
330
1F
100
AcDbEntity
  8
interior cut 3
100
AcDbPolyline
 90
        4
 70
     1
 43
0.0
 10
172.8833433792744
 20
413.7577583257173
 10
176.0833433792737
 20
413.7577583257173
 10
176.0833433792737
 20
403.5577583257174
 10
172.8833433792744
 20
403.5577583257174
  0
LWPOLYLINE
  5
2E4
330
1F
100
AcDbEntity
  8
interior cut 3
100
AcDbPolyline
 90
        4
 70
     1
 43
0.0
 10
172.8833433792744
 20
393.7577583257174
 10
176.0833433792737
 20
393.7577583257174
 10
176.0833433792737
 20
383.5577583257175
 10
172.8833433792744
 20
383.5577583257175
  0
LWPOLYLINE
  5
2E5
330
1F
100
AcDbEntity
  8
interior cut 3
100
AcDbPolyline
 90
        4
 70
     1
 43
0.0
 10
172.8833433792744
 20
373.7577583257174
 10
176.0833433792737
 20
373.7577583257174
 10
176.0833433792737
 20
363.5577583257175
 10
172.8833433792744
 20
363.5577583257175
  0
LWPOLYLINE
  5
2E6
330
1F
100
AcDbEntity
  8
interior cut 3
100
AcDbPolyline
 90
        4
 70
     1
 43
0.0
 10
172.8833433792744
 20
353.7577583257174
 10
176.0833433792737
 20
353.7577583257174
 10
176.0833433792737
 20
343.5577583257174
 10
172.8833433792744
 20
343.5577583257174
  0
LWPOLYLINE
  5
2E7
330
1F
100
AcDbEntity
  8
interior cut 3
100
AcDbPolyline
 90
        4
 70
     1
 43
0.0
 10
172.8833433792744
 20
333.7577583257174
 10
176.0833433792737
 20
333.7577583257174
 10
176.0833433792737
 20
323.5577583257174
 10
172.8833433792744
 20
323.5577583257174
  0
LWPOLYLINE
  5
2E8
330
1F
100
AcDbEntity
  8
interior cut 3
100
AcDbPolyline
 90
        4
 70
     1
 43
0.0
 10
172.8833433792744
 20
313.7577583257173
 10
176.0833433792737
 20
313.7577583257173
 10
176.0833433792737
 20
303.5577583257174
 10
172.8833433792744
 20
303.5577583257174
  0
LWPOLYLINE
  5
2E9
330
1F
100
AcDbEntity
  8
interior cut 3
100
AcDbPolyline
 90
        4
 70
     1
 43
0.0
 10
172.8833433792744
 20
293.7577583257174
 10
176.0833433792737
 20
293.7577583257174
 10
176.0833433792737
 20
283.5577583257174
 10
172.8833433792744
 20
283.5577583257174
  0
LWPOLYLINE
  5
2EA
330
1F
100
AcDbEntity
  8
interior cut 3
100
AcDbPolyline
 90
        4
 70
     1
 43
0.0
 10
172.8833433792744
 20
273.7577583257174
 10
176.0833433792737
 20
273.7577583257174
 10
176.0833433792737
 20
263.5577583257174
 10
172.8833433792744
 20
263.5577583257174
  0
LWPOLYLINE
  5
2EB
330
1F
100
AcDbEntity
  8
interior cut 3
100
AcDbPolyline
 90
        4
 70
     1
 43
0.0
 10
172.8833433792744
 20
253.7577583257173
 10
176.0833433792737
 20
253.7577583257173
 10
176.0833433792737
 20
243.5577583257174
 10
172.8833433792744
 20
243.5577583257174
  0
LWPOLYLINE
  5
2EC
330
1F
100
AcDbEntity
  8
interior cut 3
100
AcDbPolyline
 90
        4
 70
     1
 43
0.0
 10
172.8833433792744
 20
233.7577583257173
 10
176.0833433792737
 20
233.7577583257173
 10
176.0833433792737
 20
223.5577583257175
 10
172.8833433792744
 20
223.5577583257175
  0
LWPOLYLINE
  5
2ED
330
1F
100
AcDbEntity
  8
interior cut 3
100
AcDbPolyline
 90
        4
 70
     1
 43
0.0
 10
172.8833433792744
 20
213.7577583257173
 10
176.0833433792737
 20
213.7577583257173
 10
176.0833433792737
 20
203.5577583257174
 10
172.8833433792744
 20
203.5577583257174
  0
LWPOLYLINE
  5
2EE
330
1F
100
AcDbEntity
  8
interior cut 3
100
AcDbPolyline
 90
        4
 70
     1
 43
0.0
 10
172.8833433792744
 20
193.7577583257173
 10
176.0833433792737
 20
193.7577583257173
 10
176.0833433792737
 20
183.5577583257174
 10
172.8833433792744
 20
183.5577583257174
  0
LWPOLYLINE
  5
2EF
330
1F
100
AcDbEntity
  8
interior cut 3
100
AcDbPolyline
 90
        4
 70
     1
 43
0.0
 10
172.8833433792744
 20
173.7577583257173
 10
176.0833433792737
 20
173.7577583257173
 10
176.0833433792737
 20
163.5577583257173
 10
172.8833433792744
 20
163.5577583257173
  0
LWPOLYLINE
  5
2F0
330
1F
100
AcDbEntity
  8
interior cut 3
100
AcDbPolyline
 90
        4
 70
     1
 43
0.0
 10
172.8833433792744
 20
153.7577583257173
 10
176.0833433792737
 20
153.7577583257173
 10
176.0833433792737
 20
143.5577583257173
 10
172.8833433792744
 20
143.5577583257173
  0
LWPOLYLINE
  5
2F1
330
1F
100
AcDbEntity
  8
interior cut 3
100
AcDbPolyline
 90
        4
 70
     1
 43
0.0
 10
172.8833433792744
 20
133.7577583257173
 10
176.0833433792737
 20
133.7577583257173
 10
176.0833433792737
 20
123.5577583257173
 10
172.8833433792744
 20
123.5577583257173
  0
LWPOLYLINE
  5
2F2
330
1F
100
AcDbEntity
  8
interior cut 2
100
AcDbPolyline
 90
      102
 70
     0
 43
0.0
 10
692.9333433792708
 20
631.357758325717
 10
685.0333433792728
 20
631.357758325717
 10
685.0333433792728
 20
628.4577583257171
 10
675.033343379273
 20
628.4577583257171
 10
675.033343379273
 20
631.357758325717
 10
665.033343379273
 20
631.357758325717
 10
665.033343379273
 20
628.4577583257171
 10
655.0333433792729
 20
628.4577583257171
 10
655.0333433792729
 20
631.357758325717
 10
645.033343379273
 20
631.357758325717
 10
645.033343379273
 20
628.4577583257171
 10
635.0333433792728
 20
628.4577583257171
 10
635.0333433792728
 20
631.357758325717
 10
625.033343379273
 20
631.357758325717
 10
625.033343379273
 20
628.4577583257171
 10
615.033343379273
 20
628.4577583257171
 10
615.033343379273
 20
631.357758325717
 10
605.0333433792729
 20
631.357758325717
 10
605.0333433792729
 20
628.4577583257171
 10
595.033343379273
 20
628.4577583257171
 10
595.033343379273
 20
631.357758325717
 10
585.0333433792728
 20
631.357758325717
 10
585.0333433792728
 20
628.4577583257171
 10
575.033343379273
 20
628.4577583257171
 10
575.033343379273
 20
631.357758325717
 10
565.033343379273
 20
631.357758325717
 10
565.033343379273
 20
628.4577583257171
 10
555.0333433792729
 20
628.4577583257171
 10
555.0333433792729
 20
631.357758325717
 10
545.033343379273
 20
631.357758325717
 10
545.033343379273
 20
628.4577583257171
 10
535.0333433792728
 20
628.4577583257171
 10
535.0333433792728
 20
631.357758325717
 10
525.033343379273
 20
631.357758325717
 10
525.033343379273
 20
628.4577583257171
 10
515.033343379273
 20
628.4577583257171
 10
515.033343379273
 20
631.357758325717
 10
505.0333433792728
 20
631.357758325717
 10
505.0333433792728
 20
628.4577583257171
 10
495.033343379273
 20
628.4577583257171
 10
495.033343379273
 20
631.357758325717
 10
485.0333433792727
 20
631.357758325717
 10
485.0333433792727
 20
628.4577583257171
 10
475.0333433792728
 20
628.4577583257171
 10
475.0333433792728
 20
631.357758325717
 10
465.0333433792728
 20
631.357758325717
 10
465.0333433792728
 20
628.4577583257171
 10
455.0333433792729
 20
628.4577583257171
 10
455.0333433792729
 20
631.357758325717
 10
445.033343379273
 20
631.357758325717
 10
445.033343379273
 20
628.4577583257171
 10
435.0333433792729
 20
628.4577583257171
 10
435.0333433792729
 20
631.357758325717
 10
425.033343379273
 20
631.357758325717
 10
425.033343379273
 20
628.4577583257171
 10
415.0333433792729
 20
628.4577583257171
 10
415.0333433792729
 20
631.357758325717
 10
405.0333433792728
 20
631.357758325717
 10
405.0333433792728
 20
628.4577583257171
 10
395.033343379273
 20
628.4577583257171
 10
395.033343379273
 20
631.357758325717
 10
385.033343379273
 20
631.357758325717
 10
385.033343379273
 20
628.4577583257171
 10
375.033343379273
 20
628.4577583257171
 10
375.033343379273
 20
631.357758325717
 10
365.033343379273
 20
631.357758325717
 10
365.033343379273
 20
628.4577583257171
 10
355.033343379273
 20
628.4577583257171
 10
355.033343379273
 20
631.357758325717
 10
345.033343379273
 20
631.357758325717
 10
345.033343379273
 20
628.4577583257171
 10
335.033343379273
 20
628.4577583257171
 10
335.033343379273
 20
631.357758325717
 10
325.033343379273
 20
631.357758325717
 10
325.033343379273
 20
628.4577583257171
 10
315.033343379273
 20
628.4577583257171
 10
315.033343379273
 20
631.357758325717
 10
305.033343379273
 20
631.357758325717
 10
305.033343379273
 20
628.4577583257171
 10
295.033343379273
 20
628.4577583257171
 10
295.033343379273
 20
631.357758325717
 10
285.033343379273
 20
631.357758325717
 10
285.033343379273
 20
628.4577583257171
 10
275.033343379273
 20
628.4577583257171
 10
275.033343379273
 20
631.357758325717
 10
265.033343379273
 20
631.357758325717
 10
265.033343379273
 20
628.4577583257171
 10
255.0333433792729
 20
628.4577583257171
 10
255.0333433792729
 20
631.357758325717
 10
245.0333433792729
 20
631.357758325717
 10
245.0333433792729
 20
628.4577583257171
 10
235.033343379273
 20
628.4577583257171
 10
235.033343379273
 20
631.357758325717
 10
225.0333433792729
 20
631.357758325717
 10
225.0333433792729
 20
628.4577583257171
 10
215.033343379273
 20
628.4577583257171
 10
215.033343379273
 20
631.357758325717
 10
205.0333433792729
 20
631.357758325717
 10
205.0333433792729
 20
628.4577583257171
 10
195.0333433792729
 20
628.4577583257171
 10
195.0333433792729
 20
631.357758325717
 10
187.1333433792751
 20
631.357758325717
  0
LWPOLYLINE
  5
2F3
330
1F
100
AcDbEntity
  8
exterior cut
100
AcDbPolyline
 90
      596
 70
     1
 43
0.0
 10
812.133343379275
 20
3.457758325717236
 10
812.133343379275
 20
13.55775832571726
 10
815.133343379275
 20
13.55775832571726
 10
815.133343379275
 20
23.55775832571726
 10
812.133343379275
 20
23.55775832571737
 10
812.133343379275
 20
33.55775832571727
 10
815.133343379275
 20
33.55775832571727
 10
815.133343379275
 20
43.55775832571725
 10
812.133343379275
 20
43.55775832571715
 10
812.133343379275
 20
53.55775832571726
 10
815.133343379275
 20
53.55775832571726
 10
815.133343379275
 20
63.55775832571726
 10
812.133343379275
 20
63.55775832571737
 10
812.133343379275
 20
73.55775832571727
 10
815.133343379275
 20
73.55775832571727
 10
815.133343379275
 20
83.55775832571728
 10
812.133343379275
 20
83.55775832571714
 10
812.133343379275
 20
93.55775832571728
 10
815.133343379275
 20
93.55775832571728
 10
815.133343379275
 20
103.5577583257172
 10
812.133343379275
 20
103.5577583257173
 10
812.133343379275
 20
113.5577583257172
 10
815.133343379275
 20
113.5577583257172
 10
815.133343379275
 20
123.5577583257172
 10
812.133343379275
 20
123.5577583257171
 10
812.133343379275
 20
133.5577583257172
 10
815.133343379275
 20
133.5577583257172
 10
815.133343379275
 20
143.5577583257171
 10
812.133343379275
 20
143.5577583257173
 10
812.133343379275
 20
153.5577583257172
 10
815.133343379275
 20
153.5577583257172
 10
815.133343379275
 20
163.5577583257171
 10
812.133343379275
 20
163.5577583257171
 10
812.133343379275
 20
173.5577583257172
 10
815.133343379275
 20
173.5577583257172
 10
815.133343379275
 20
183.5577583257172
 10
812.133343379275
 20
183.5577583257173
 10
812.133343379275
 20
193.5577583257172
 10
815.133343379275
 20
193.5577583257172
 10
815.133343379275
 20
203.5577583257172
 10
812.133343379275
 20
203.5577583257171
 10
812.133343379275
 20
213.5577583257172
 10
815.133343379275
 20
213.5577583257172
 10
815.133343379275
 20
223.5577583257172
 10
812.133343379275
 20
223.5577583257173
 10
812.133343379275
 20
233.5577583257173
 10
815.133343379275
 20
233.5577583257173
 10
815.133343379275
 20
243.5577583257172
 10
812.133343379275
 20
243.5577583257171
 10
812.133343379275
 20
253.5577583257172
 10
815.133343379275
 20
253.5577583257172
 10
815.133343379275
 20
263.5577583257172
 10
812.133343379275
 20
263.5577583257173
 10
812.133343379275
 20
273.5577583257172
 10
815.133343379275
 20
273.5577583257172
 10
815.133343379275
 20
283.5577583257172
 10
812.133343379275
 20
283.5577583257172
 10
812.133343379275
 20
293.5577583257173
 10
815.133343379275
 20
293.5577583257173
 10
815.133343379275
 20
303.5577583257173
 10
812.133343379275
 20
303.5577583257173
 10
812.133343379275
 20
313.5577583257171
 10
815.133343379275
 20
313.5577583257173
 10
815.133343379275
 20
323.5577583257172
 10
812.133343379275
 20
323.5577583257173
 10
812.133343379275
 20
333.5577583257173
 10
815.133343379275
 20
333.5577583257173
 10
815.133343379275
 20
343.5577583257171
 10
812.133343379275
 20
343.5577583257173
 10
812.133343379275
 20
353.5577583257173
 10
815.133343379275
 20
353.5577583257173
 10
815.133343379275
 20
363.5577583257171
 10
812.133343379275
 20
363.5577583257171
 10
812.133343379275
 20
373.5577583257172
 10
815.133343379275
 20
373.5577583257172
 10
815.133343379275
 20
383.5577583257173
 10
812.133343379275
 20
383.5577583257172
 10
812.133343379275
 20
393.5577583257173
 10
815.1333433792714
 20
393.5577583257173
 10
815.1333433792714
 20
403.5577583257171
 10
812.133343379275
 20
403.5577583257171
 10
812.133343379275
 20
413.5577583257171
 10
815.1333433792714
 20
413.5577583257171
 10
815.1333433792714
 20
423.557758325717
 10
812.133343379275
 20
423.5577583257171
 10
812.133343379275
 20
433.5577583257173
 10
815.133343379275
 20
433.5577583257173
 10
815.133343379275
 20
443.5577583257169
 10
812.133343379275
 20
443.5577583257169
 10
812.133343379275
 20
453.5577583257171
 10
815.133343379275
 20
453.5577583257171
 10
815.133343379275
 20
463.5577583257171
 10
812.133343379275
 20
463.557758325717
 10
812.133343379275
 20
473.5577583257171
 10
815.1333433792714
 20
473.5577583257171
 10
815.1333433792714
 20
483.5577583257173
 10
812.133343379275
 20
483.5577583257173
 10
812.133343379275
 20
493.5577583257173
 10
815.133343379275
 20
493.5577583257169
 10
815.133343379275
 20
503.5577583257171
 10
812.133343379275
 20
503.5577583257168
 10
812.133343379275
 20
513.557758325717
 10
815.1333433792714
 20
513.557758325717
 10
815.1333433792714
 20
523.5577583257171
 10
812.133343379275
 20
523.5577583257174
 10
812.133343379275
 20
533.5577583257173
 10
815.133343379275
 20
533.5577583257173
 10
815.1333433792714
 20
543.5577583257171
 10
812.133343379275
 20
543.5577583257171
 10
812.133343379275
 20
553.5577583257171
 10
815.133343379275
 20
553.5577583257171
 10
815.1333433792714
 20
563.5577583257171
 10
812.133343379275
 20
563.5577583257171
 10
812.133343379275
 20
573.5577583257172
 10
815.133343379275
 20
573.5577583257172
 10
815.133343379275
 20
583.5577583257173
 10
812.133343379275
 20
583.5577583257173
 10
812.133343379275
 20
593.5577583257172
 10
815.1333433792714
 20
593.5577583257172
 10
815.1333433792714
 20
603.5577583257174
 10
812.133343379275
 20
603.5577583257174
 10
812.133343379275
 20
613.5577583257172
 10
815.1333433792714
 20
613.5577583257172
 10
815.1333433792714
 20
623.5577583257172
 10
812.133343379275
 20
623.5577583257172
 10
812.133343379275
 20
633.5577583257173
 10
815.133343379275
 20
633.5577583257173
 10
815.1333433792714
 20
643.5577583257172
 10
812.133343379275
 20
643.5577583257172
 10
812.133343379275
 20
653.5577583257174
 10
815.1333433792714
 20
653.5577583257174
 10
815.133343379275
 20
663.5577583257172
 10
812.133343379275
 20
663.5577583257171
 10
812.133343379275
 20
673.5577583257174
 10
815.133343379275
 20
673.5577583257174
 10
815.1333433792714
 20
683.5577583257173
 10
812.133343379275
 20
683.5577583257173
 10
812.133343379275
 20
693.5577583257172
 10
815.133343379275
 20
693.5577583257172
 10
815.133343379275
 20
703.5577583257172
 10
812.133343379275
 20
703.5577583257172
 10
812.133343379275
 20
713.5577583257172
 10
815.133343379275
 20
713.5577583257172
 10
815.133343379275
 20
723.5577583257172
 10
812.133343379275
 20
723.5577583257172
 10
812.133343379275
 20
733.5577583257173
 10
815.1333433792714
 20
733.5577583257173
 10
815.133343379275
 20
743.5577583257172
 10
812.133343379275
 20
743.5577583257172
 10
812.133343379275
 20
753.4577583257173
 10
805.0333433792728
 20
753.4577583257173
 10
805.0333433792728
 20
750.557758325717
 10
795.0333433792731
 20
750.557758325717
 10
795.0333433792731
 20
753.4577583257173
 10
785.0333433792727
 20
753.4577583257173
 10
785.0333433792727
 20
750.557758325717
 10
775.0333433792729
 20
750.557758325717
 10
775.0333433792729
 20
753.4577583257173
 10
765.0333433792731
 20
753.4577583257173
 10
765.0333433792731
 20
750.557758325717
 10
755.0333433792729
 20
750.557758325717
 10
755.0333433792729
 20
753.4577583257173
 10
745.0333433792731
 20
753.4577583257173
 10
745.0333433792731
 20
750.557758325717
 10
735.0333433792728
 20
750.557758325717
 10
735.0333433792728
 20
753.4577583257173
 10
725.033343379273
 20
753.4577583257173
 10
725.033343379273
 20
750.557758325717
 10
715.0333433792731
 20
750.557758325717
 10
715.0333433792731
 20
753.4577583257173
 10
705.0333433792729
 20
753.4577583257173
 10
705.0333433792729
 20
750.557758325717
 10
695.0333433792731
 20
750.557758325717
 10
695.0333433792731
 20
753.4577583257173
 10
685.0333433792728
 20
753.4577583257173
 10
685.0333433792728
 20
750.557758325717
 10
675.033343379273
 20
750.557758325717
 10
675.033343379273
 20
753.4577583257173
 10
665.033343379273
 20
753.4577583257173
 10
665.033343379273
 20
750.557758325717
 10
655.0333433792729
 20
750.557758325717
 10
655.0333433792729
 20
753.4577583257173
 10
645.033343379273
 20
753.4577583257173
 10
645.033343379273
 20
750.557758325717
 10
635.0333433792728
 20
750.557758325717
 10
635.0333433792728
 20
753.4577583257173
 10
625.033343379273
 20
753.4577583257173
 10
625.033343379273
 20
750.557758325717
 10
615.033343379273
 20
750.557758325717
 10
615.033343379273
 20
753.4577583257173
 10
605.0333433792729
 20
753.4577583257173
 10
605.0333433792729
 20
750.557758325717
 10
595.033343379273
 20
750.557758325717
 10
595.033343379273
 20
753.4577583257173
 10
585.0333433792728
 20
753.4577583257173
 10
585.0333433792728
 20
750.557758325717
 10
575.033343379273
 20
750.557758325717
 10
575.033343379273
 20
753.4577583257173
 10
565.033343379273
 20
753.4577583257173
 10
565.033343379273
 20
750.557758325717
 10
555.0333433792729
 20
750.557758325717
 10
555.0333433792729
 20
753.4577583257173
 10
545.033343379273
 20
753.4577583257173
 10
545.033343379273
 20
750.557758325717
 10
535.0333433792728
 20
750.557758325717
 10
535.0333433792728
 20
753.4577583257173
 10
525.033343379273
 20
753.4577583257173
 10
525.033343379273
 20
750.557758325717
 10
515.033343379273
 20
750.557758325717
 10
515.033343379273
 20
753.4577583257173
 10
505.0333433792728
 20
753.4577583257173
 10
505.0333433792728
 20
750.557758325717
 10
495.033343379273
 20
750.557758325717
 10
495.033343379273
 20
753.4577583257173
 10
485.0333433792727
 20
753.4577583257173
 10
485.0333433792727
 20
750.557758325717
 10
475.0333433792728
 20
750.557758325717
 10
475.0333433792728
 20
753.4577583257173
 10
465.0333433792728
 20
753.4577583257173
 10
465.0333433792728
 20
750.557758325717
 10
455.0333433792729
 20
750.557758325717
 10
455.0333433792729
 20
753.4577583257173
 10
445.033343379273
 20
753.4577583257173
 10
445.033343379273
 20
750.557758325717
 10
435.0333433792729
 20
750.557758325717
 10
435.0333433792729
 20
753.4577583257173
 10
425.033343379273
 20
753.4577583257173
 10
425.033343379273
 20
750.557758325717
 10
415.0333433792729
 20
750.557758325717
 10
415.0333433792729
 20
753.4577583257173
 10
405.0333433792728
 20
753.4577583257173
 10
405.0333433792728
 20
750.557758325717
 10
395.033343379273
 20
750.557758325717
 10
395.033343379273
 20
753.4577583257173
 10
385.033343379273
 20
753.4577583257173
 10
385.033343379273
 20
750.557758325717
 10
375.033343379273
 20
750.557758325717
 10
375.033343379273
 20
753.4577583257173
 10
365.033343379273
 20
753.4577583257173
 10
365.033343379273
 20
750.557758325717
 10
355.033343379273
 20
750.557758325717
 10
355.033343379273
 20
753.4577583257173
 10
345.033343379273
 20
753.4577583257173
 10
345.033343379273
 20
750.557758325717
 10
335.033343379273
 20
750.557758325717
 10
335.033343379273
 20
753.4577583257173
 10
325.033343379273
 20
753.4577583257173
 10
325.033343379273
 20
750.557758325717
 10
315.033343379273
 20
750.557758325717
 10
315.033343379273
 20
753.4577583257173
 10
305.033343379273
 20
753.4577583257173
 10
305.033343379273
 20
750.557758325717
 10
295.033343379273
 20
750.557758325717
 10
295.033343379273
 20
753.4577583257173
 10
285.033343379273
 20
753.4577583257173
 10
285.033343379273
 20
750.557758325717
 10
275.033343379273
 20
750.557758325717
 10
275.033343379273
 20
753.4577583257173
 10
265.033343379273
 20
753.4577583257173
 10
265.033343379273
 20
750.557758325717
 10
255.0333433792729
 20
750.557758325717
 10
255.0333433792729
 20
753.4577583257173
 10
245.0333433792729
 20
753.4577583257173
 10
245.0333433792729
 20
750.557758325717
 10
235.033343379273
 20
750.557758325717
 10
235.033343379273
 20
753.4577583257173
 10
225.0333433792729
 20
753.4577583257173
 10
225.0333433792729
 20
750.557758325717
 10
215.033343379273
 20
750.557758325717
 10
215.033343379273
 20
753.4577583257173
 10
205.0333433792729
 20
753.4577583257173
 10
205.0333433792729
 20
750.557758325717
 10
195.0333433792729
 20
750.557758325717
 10
195.0333433792729
 20
753.4577583257173
 10
185.033343379273
 20
753.4577583257173
 10
185.033343379273
 20
750.557758325717
 10
175.0333433792729
 20
750.557758325717
 10
175.0333433792729
 20
753.4577583257173
 10
165.033343379273
 20
753.4577583257173
 10
165.033343379273
 20
750.557758325717
 10
155.033343379273
 20
750.557758325717
 10
155.033343379273
 20
753.4577583257173
 10
145.033343379273
 20
753.4577583257173
 10
145.033343379273
 20
750.557758325717
 10
135.033343379273
 20
750.557758325717
 10
135.033343379273
 20
753.4577583257173
 10
125.033343379273
 20
753.4577583257173
 10
125.033343379273
 20
750.557758325717
 10
115.033343379273
 20
750.557758325717
 10
115.033343379273
 20
753.4577583257173
 10
105.033343379273
 20
753.4577583257173
 10
105.033343379273
 20
750.557758325717
 10
95.03334337927299
 20
750.557758325717
 10
95.03334337927299
 20
753.4577583257173
 10
85.03334337927299
 20
753.4577583257173
 10
85.03334337927299
 20
750.557758325717
 10
75.03334337927299
 20
750.557758325717
 10
75.03334337927299
 20
753.4577583257173
 10
67.93334337927081
 20
753.4577583257173
 10
67.93334337927081
 20
743.5577583257172
 10
64.9333433792708
 20
743.5577583257172
 10
64.93334337927445
 20
733.5577583257173
 10
67.93334337927081
 20
733.5577583257173
 10
67.93334337927081
 20
723.5577583257172
 10
64.9333433792708
 20
723.5577583257172
 10
64.9333433792708
 20
713.5577583257172
 10
67.93334337927081
 20
713.5577583257172
 10
67.93334337927081
 20
703.5577583257172
 10
64.9333433792708
 20
703.5577583257172
 10
64.9333433792708
 20
693.5577583257172
 10
67.93334337927081
 20
693.5577583257172
 10
67.93334337927081
 20
683.5577583257173
 10
64.93334337927445
 20
683.5577583257173
 10
64.9333433792708
 20
673.5577583257174
 10
67.93334337927081
 20
673.5577583257174
 10
67.93334337927081
 20
663.5577583257171
 10
64.9333433792708
 20
663.5577583257172
 10
64.93334337927445
 20
653.5577583257174
 10
67.93334337927081
 20
653.5577583257174
 10
67.93334337927081
 20
643.5577583257172
 10
64.93334337927445
 20
643.5577583257172
 10
64.9333433792708
 20
633.5577583257173
 10
67.93334337927081
 20
633.5577583257173
 10
67.93334337927081
 20
623.5577583257172
 10
64.93334337927445
 20
623.5577583257172
 10
64.93334337927445
 20
613.5577583257172
 10
67.93334337927081
 20
613.5577583257172
 10
67.93334337927081
 20
603.5577583257174
 10
64.93334337927445
 20
603.5577583257174
 10
64.93334337927445
 20
593.5577583257172
 10
67.93334337927081
 20
593.5577583257172
 10
67.93334337927081
 20
583.5577583257173
 10
64.9333433792708
 20
583.5577583257173
 10
64.9333433792708
 20
573.5577583257172
 10
67.93334337927081
 20
573.5577583257172
 10
67.93334337927081
 20
563.5577583257171
 10
64.93334337927445
 20
563.5577583257171
 10
64.9333433792708
 20
553.5577583257171
 10
67.93334337927081
 20
553.5577583257171
 10
67.93334337927081
 20
543.5577583257171
 10
64.93334337927445
 20
543.5577583257171
 10
64.9333433792708
 20
533.5577583257173
 10
67.93334337927081
 20
533.5577583257173
 10
67.93334337927081
 20
523.5577583257174
 10
64.93334337927445
 20
523.5577583257171
 10
64.93334337927445
 20
513.557758325717
 10
67.93334337927081
 20
513.557758325717
 10
67.93334337927081
 20
503.5577583257168
 10
64.9333433792708
 20
503.5577583257171
 10
64.9333433792708
 20
493.5577583257169
 10
67.93334337927081
 20
493.5577583257173
 10
67.93334337927081
 20
483.5577583257173
 10
64.93334337927445
 20
483.5577583257173
 10
64.93334337927445
 20
473.5577583257171
 10
67.93334337927081
 20
473.5577583257171
 10
67.93334337927081
 20
463.557758325717
 10
64.9333433792708
 20
463.5577583257171
 10
64.9333433792708
 20
453.5577583257171
 10
67.93334337927081
 20
453.5577583257171
 10
67.93334337927081
 20
443.5577583257169
 10
64.9333433792708
 20
443.5577583257169
 10
64.9333433792708
 20
433.5577583257173
 10
67.93334337927081
 20
433.5577583257173
 10
67.93334337927081
 20
423.5577583257171
 10
64.93334337927445
 20
423.557758325717
 10
64.93334337927445
 20
413.5577583257171
 10
67.93334337927081
 20
413.5577583257171
 10
67.93334337927081
 20
403.5577583257171
 10
64.93334337927445
 20
403.5577583257171
 10
64.93334337927445
 20
393.5577583257173
 10
67.93334337927081
 20
393.5577583257173
 10
67.93334337927081
 20
383.5577583257172
 10
64.9333433792708
 20
383.5577583257173
 10
64.9333433792708
 20
373.5577583257172
 10
67.93334337927081
 20
373.5577583257172
 10
67.93334337927081
 20
363.5577583257171
 10
64.9333433792708
 20
363.5577583257171
 10
64.9333433792708
 20
353.5577583257173
 10
67.93334337927081
 20
353.5577583257173
 10
67.93334337927081
 20
343.5577583257173
 10
64.9333433792708
 20
343.5577583257171
 10
64.9333433792708
 20
333.5577583257173
 10
67.93334337927081
 20
333.5577583257173
 10
67.93334337927081
 20
323.5577583257173
 10
64.9333433792708
 20
323.5577583257172
 10
64.9333433792708
 20
313.5577583257173
 10
67.93334337927081
 20
313.5577583257171
 10
67.93334337927081
 20
303.5577583257173
 10
64.9333433792708
 20
303.5577583257173
 10
64.9333433792708
 20
293.5577583257173
 10
67.93334337927081
 20
293.5577583257173
 10
67.93334337927081
 20
283.5577583257172
 10
64.9333433792708
 20
283.5577583257172
 10
64.9333433792708
 20
273.5577583257172
 10
67.93334337927081
 20
273.5577583257172
 10
67.93334337927081
 20
263.5577583257173
 10
64.9333433792708
 20
263.5577583257172
 10
64.9333433792708
 20
253.5577583257172
 10
67.93334337927081
 20
253.5577583257172
 10
67.93334337927081
 20
243.5577583257171
 10
64.9333433792708
 20
243.5577583257172
 10
64.9333433792708
 20
233.5577583257173
 10
67.93334337927081
 20
233.5577583257173
 10
67.93334337927081
 20
223.5577583257173
 10
64.9333433792708
 20
223.5577583257172
 10
64.9333433792708
 20
213.5577583257172
 10
67.93334337927081
 20
213.5577583257172
 10
67.93334337927081
 20
203.5577583257171
 10
64.9333433792708
 20
203.5577583257172
 10
64.9333433792708
 20
193.5577583257172
 10
67.93334337927081
 20
193.5577583257172
 10
67.93334337927081
 20
183.5577583257173
 10
64.9333433792708
 20
183.5577583257172
 10
64.9333433792708
 20
173.5577583257172
 10
67.93334337927081
 20
173.5577583257172
 10
67.93334337927081
 20
163.5577583257171
 10
64.9333433792708
 20
163.5577583257171
 10
64.9333433792708
 20
153.5577583257172
 10
67.93334337927081
 20
153.5577583257172
 10
67.93334337927081
 20
143.5577583257173
 10
64.9333433792708
 20
143.5577583257171
 10
64.9333433792708
 20
133.5577583257172
 10
67.93334337927081
 20
133.5577583257172
 10
67.93334337927081
 20
123.5577583257171
 10
64.9333433792708
 20
123.5577583257172
 10
64.9333433792708
 20
113.5577583257172
 10
67.93334337927081
 20
113.5577583257172
 10
67.93334337927081
 20
103.5577583257173
 10
64.9333433792708
 20
103.5577583257172
 10
64.9333433792708
 20
93.55775832571728
 10
67.93334337927081
 20
93.55775832571728
 10
67.93334337927081
 20
83.55775832571714
 10
64.9333433792708
 20
83.55775832571728
 10
64.9333433792708
 20
73.55775832571727
 10
67.93334337927081
 20
73.55775832571727
 10
67.93334337927081
 20
63.55775832571737
 10
64.9333433792708
 20
63.55775832571726
 10
64.9333433792708
 20
53.55775832571726
 10
67.93334337927081
 20
53.55775832571726
 10
67.93334337927081
 20
43.55775832571715
 10
64.9333433792708
 20
43.55775832571725
 10
64.9333433792708
 20
33.55775832571727
 10
67.93334337927081
 20
33.55775832571727
 10
67.93334337927081
 20
23.55775832571737
 10
64.9333433792708
 20
23.55775832571726
 10
64.9333433792708
 20
13.55775832571726
 10
67.93334337927081
 20
13.55775832571726
 10
67.93334337927081
 20
3.457758325717121
 10
75.03334337927299
 20
3.457758325717121
 10
75.03334337927299
 20
6.357758325717212
 10
85.03334337927299
 20
6.357758325717212
 10
85.03334337927299
 20
3.457758325717121
 10
95.03334337927299
 20
3.457758325717121
 10
95.03334337927299
 20
6.357758325717212
 10
105.033343379273
 20
6.357758325717212
 10
105.033343379273
 20
3.457758325717121
 10
115.033343379273
 20
3.457758325717121
 10
115.033343379273
 20
6.357758325717212
 10
125.033343379273
 20
6.357758325717212
 10
125.033343379273
 20
3.457758325717121
 10
135.033343379273
 20
3.457758325717121
 10
135.033343379273
 20
6.357758325717212
 10
145.033343379273
 20
6.357758325717212
 10
145.033343379273
 20
3.457758325717121
 10
155.033343379273
 20
3.457758325717121
 10
155.033343379273
 20
6.357758325717212
 10
165.033343379273
 20
6.357758325717212
 10
165.033343379273
 20
3.457758325717121
 10
175.0333433792729
 20
3.457758325717121
 10
175.0333433792729
 20
6.357758325717212
 10
185.033343379273
 20
6.357758325717212
 10
185.033343379273
 20
3.457758325717121
 10
195.0333433792729
 20
3.457758325717121
 10
195.0333433792729
 20
6.357758325717212
 10
205.0333433792729
 20
6.357758325717212
 10
205.0333433792729
 20
3.457758325717121
 10
215.033343379273
 20
3.457758325717121
 10
215.033343379273
 20
6.357758325717212
 10
225.0333433792729
 20
6.357758325717212
 10
225.0333433792729
 20
3.457758325717121
 10
235.033343379273
 20
3.457758325717121
 10
235.033343379273
 20
6.357758325717212
 10
245.0333433792729
 20
6.357758325717212
 10
245.0333433792729
 20
3.457758325717121
 10
255.0333433792729
 20
3.457758325717121
 10
255.0333433792729
 20
6.357758325717212
 10
265.033343379273
 20
6.357758325717212
 10
265.033343379273
 20
3.457758325717121
 10
275.033343379273
 20
3.457758325717121
 10
275.033343379273
 20
6.357758325717212
 10
285.033343379273
 20
6.357758325717212
 10
285.033343379273
 20
3.457758325717121
 10
295.033343379273
 20
3.457758325717121
 10
295.033343379273
 20
6.357758325717212
 10
305.033343379273
 20
6.357758325717212
 10
305.033343379273
 20
3.457758325717121
 10
315.033343379273
 20
3.457758325717121
 10
315.033343379273
 20
6.357758325717212
 10
325.033343379273
 20
6.357758325717212
 10
325.033343379273
 20
3.457758325717121
 10
335.033343379273
 20
3.457758325717121
 10
335.033343379273
 20
6.357758325717212
 10
345.033343379273
 20
6.357758325717212
 10
345.033343379273
 20
3.457758325717121
 10
355.033343379273
 20
3.457758325717121
 10
355.033343379273
 20
6.357758325717212
 10
365.033343379273
 20
6.357758325717212
 10
365.033343379273
 20
3.457758325717121
 10
375.033343379273
 20
3.457758325717121
 10
375.033343379273
 20
6.357758325717212
 10
385.033343379273
 20
6.357758325717212
 10
385.033343379273
 20
3.457758325717121
 10
395.033343379273
 20
3.457758325717121
 10
395.033343379273
 20
6.357758325717212
 10
405.0333433792728
 20
6.357758325717212
 10
405.0333433792728
 20
3.457758325717121
 10
415.0333433792729
 20
3.457758325717121
 10
415.0333433792729
 20
6.357758325717212
 10
425.033343379273
 20
6.357758325717212
 10
425.033343379273
 20
3.457758325717121
 10
435.0333433792729
 20
3.457758325717121
 10
435.0333433792729
 20
6.357758325717212
 10
445.033343379273
 20
6.357758325717212
 10
445.033343379273
 20
3.457758325717121
 10
455.0333433792729
 20
3.457758325717121
 10
455.0333433792729
 20
6.357758325717212
 10
465.0333433792728
 20
6.357758325717212
 10
465.0333433792728
 20
3.457758325717121
 10
475.0333433792728
 20
3.457758325717121
 10
475.0333433792728
 20
6.357758325717212
 10
485.0333433792727
 20
6.357758325717212
 10
485.0333433792727
 20
3.457758325717121
 10
495.033343379273
 20
3.457758325717121
 10
495.033343379273
 20
6.357758325717212
 10
505.0333433792728
 20
6.357758325717212
 10
505.0333433792728
 20
3.457758325717121
 10
515.033343379273
 20
3.457758325717121
 10
515.033343379273
 20
6.357758325717212
 10
525.033343379273
 20
6.357758325717212
 10
525.033343379273
 20
3.457758325717121
 10
535.0333433792728
 20
3.457758325717121
 10
535.0333433792728
 20
6.357758325717212
 10
545.033343379273
 20
6.357758325717212
 10
545.033343379273
 20
3.457758325717121
 10
555.0333433792729
 20
3.457758325717121
 10
555.0333433792729
 20
6.357758325717212
 10
565.033343379273
 20
6.357758325717212
 10
565.033343379273
 20
3.457758325717121
 10
575.033343379273
 20
3.457758325717121
 10
575.033343379273
 20
6.357758325717212
 10
585.0333433792728
 20
6.357758325717212
 10
585.0333433792728
 20
3.457758325717121
 10
595.033343379273
 20
3.457758325717121
 10
595.033343379273
 20
6.357758325717212
 10
605.0333433792729
 20
6.357758325717212
 10
605.0333433792729
 20
3.457758325717121
 10
615.033343379273
 20
3.457758325717121
 10
615.033343379273
 20
6.357758325717212
 10
625.033343379273
 20
6.357758325717212
 10
625.033343379273
 20
3.457758325717121
 10
635.0333433792728
 20
3.457758325717121
 10
635.0333433792728
 20
6.357758325717212
 10
645.033343379273
 20
6.357758325717212
 10
645.033343379273
 20
3.457758325717121
 10
655.0333433792729
 20
3.457758325717121
 10
655.0333433792729
 20
6.357758325717212
 10
665.033343379273
 20
6.357758325717212
 10
665.033343379273
 20
3.457758325717121
 10
675.033343379273
 20
3.457758325717121
 10
675.033343379273
 20
6.357758325717212
 10
685.0333433792728
 20
6.357758325717212
 10
685.0333433792728
 20
3.457758325717236
 10
695.0333433792731
 20
3.457758325717236
 10
695.0333433792731
 20
6.357758325717327
 10
705.0333433792729
 20
6.357758325717327
 10
705.0333433792729
 20
3.457758325717236
 10
715.0333433792731
 20
3.457758325717236
 10
715.0333433792731
 20
6.357758325717327
 10
725.033343379273
 20
6.357758325717327
 10
725.033343379273
 20
3.457758325717236
 10
735.0333433792728
 20
3.457758325717236
 10
735.0333433792728
 20
6.357758325717327
 10
745.0333433792731
 20
6.357758325717327
 10
745.0333433792731
 20
3.457758325717236
 10
755.0333433792729
 20
3.457758325717236
 10
755.0333433792729
 20
6.357758325717327
 10
765.0333433792731
 20
6.357758325717327
 10
765.0333433792731
 20
3.457758325717236
 10
775.0333433792729
 20
3.457758325717236
 10
775.0333433792729
 20
6.357758325717327
 10
785.0333433792727
 20
6.357758325717327
 10
785.0333433792727
 20
3.457758325717236
 10
795.0333433792731
 20
3.457758325717236
 10
795.0333433792731
 20
6.357758325717327
 10
805.0333433792728
 20
6.357758325717327
 10
805.0333433792728
 20
3.457758325717236
  0
LWPOLYLINE
  5
2F4
330
1F
100
AcDbEntity
  8
interior cut 2
100
AcDbPolyline
 90
      304
 70
     0
 43
0.0
 10
692.9333433792708
 20
631.4577583257126
 10
692.9333433792708
 20
623.6577583257168
 10
690.0333433792731
 20
623.6577583257168
 10
690.0333433792731
 20
613.4577583257127
 10
692.9333433792708
 20
613.4577583257127
 10
692.9333433792708
 20
603.6577583257168
 10
690.0333433792731
 20
603.6577583257168
 10
690.0333433792731
 20
593.4577583257127
 10
692.9333433792708
 20
593.4577583257127
 10
692.9333433792708
 20
583.6577583257168
 10
690.0333433792731
 20
583.6577583257168
 10
690.0333433792731
 20
573.4577583257125
 10
692.9333433792708
 20
573.4577583257125
 10
692.9333433792708
 20
563.657758325717
 10
690.0333433792731
 20
563.657758325717
 10
690.0333433792731
 20
553.4577583257124
 10
692.9333433792708
 20
553.4577583257124
 10
692.9333433792708
 20
543.657758325717
 10
690.0333433792731
 20
543.657758325717
 10
690.0333433792731
 20
533.4577583257124
 10
692.9333433792708
 20
533.4577583257124
 10
692.9333433792708
 20
523.6577583257171
 10
690.0333433792731
 20
523.6577583257171
 10
690.0333433792731
 20
513.4577583257124
 10
692.9333433792708
 20
513.4577583257124
 10
692.9333433792708
 20
503.6577583257169
 10
690.0333433792731
 20
503.6577583257169
 10
690.0333433792731
 20
493.4577583257127
 10
692.9333433792708
 20
493.4577583257127
 10
692.9333433792708
 20
483.6577583257168
 10
690.0333433792731
 20
483.6577583257168
 10
690.0333433792731
 20
473.4577583257126
 10
692.9333433792708
 20
473.4577583257126
 10
692.9333433792708
 20
463.657758325717
 10
690.0333433792731
 20
463.657758325717
 10
690.0333433792731
 20
453.4577583257126
 10
692.9333433792708
 20
453.4577583257126
 10
692.9333433792708
 20
443.657758325717
 10
690.0333433792731
 20
443.657758325717
 10
690.0333433792731
 20
433.4577583257127
 10
692.9333433792708
 20
433.4577583257127
 10
692.9333433792708
 20
423.6577583257171
 10
690.0333433792731
 20
423.6577583257171
 10
690.0333433792731
 20
413.4577583257127
 10
692.9333433792708
 20
413.4577583257127
 10
692.9333433792708
 20
403.6577583257169
 10
690.0333433792731
 20
403.6577583257169
 10
690.0333433792731
 20
393.4577583257127
 10
692.9333433792708
 20
393.4577583257127
 10
692.9333433792708
 20
383.6577583257172
 10
690.0333433792731
 20
383.6577583257172
 10
690.0333433792731
 20
373.4577583257127
 10
692.9333433792708
 20
373.4577583257127
 10
692.9333433792708
 20
363.657758325717
 10
690.0333433792731
 20
363.657758325717
 10
690.0333433792731
 20
353.4577583257128
 10
692.9333433792708
 20
353.4577583257128
 10
692.9333433792708
 20
343.6577583257172
 10
690.0333433792731
 20
343.6577583257172
 10
690.0333433792731
 20
333.4577583257126
 10
692.9333433792708
 20
333.4577583257126
 10
692.9333433792708
 20
323.6577583257171
 10
690.0333433792731
 20
323.6577583257171
 10
690.0333433792731
 20
313.4577583257126
 10
692.9333433792708
 20
313.4577583257126
 10
692.9333433792708
 20
303.657758325717
 10
690.0333433792731
 20
303.657758325717
 10
690.0333433792731
 20
293.4577583257127
 10
692.9333433792708
 20
293.4577583257127
 10
692.9333433792708
 20
283.6577583257171
 10
690.0333433792731
 20
283.6577583257171
 10
690.0333433792731
 20
273.4577583257126
 10
692.9333433792708
 20
273.4577583257126
 10
692.9333433792708
 20
263.657758325717
 10
690.0333433792731
 20
263.657758325717
 10
690.0333433792731
 20
253.4577583257127
 10
692.9333433792708
 20
253.4577583257127
 10
692.9333433792708
 20
243.657758325717
 10
690.0333433792731
 20
243.657758325717
 10
690.0333433792731
 20
233.4577583257126
 10
692.9333433792708
 20
233.4577583257126
 10
692.9333433792708
 20
223.657758325717
 10
690.0333433792731
 20
223.657758325717
 10
690.0333433792731
 20
213.4577583257127
 10
692.9333433792708
 20
213.4577583257127
 10
692.9333433792708
 20
203.657758325717
 10
690.0333433792731
 20
203.657758325717
 10
690.0333433792731
 20
193.4577583257125
 10
692.9333433792708
 20
193.4577583257125
 10
692.9333433792708
 20
183.657758325717
 10
690.0333433792731
 20
183.657758325717
 10
690.0333433792731
 20
173.4577583257125
 10
692.9333433792708
 20
173.4577583257125
 10
692.9333433792708
 20
163.657758325717
 10
690.0333433792731
 20
163.657758325717
 10
690.0333433792731
 20
153.4577583257125
 10
692.9333433792708
 20
153.4577583257125
 10
692.9333433792708
 20
143.657758325717
 10
690.0333433792731
 20
143.657758325717
 10
690.0333433792731
 20
133.4577583257126
 10
692.9333433792708
 20
133.4577583257126
 10
692.9333433792708
 20
125.6577583257171
 10
685.1333433792753
 20
125.6577583257171
 10
685.1333433792753
 20
128.5577583257171
 10
674.9333433792708
 20
128.5577583257171
 10
674.9333433792708
 20
125.657758325717
 10
665.1333433792749
 20
125.657758325717
 10
665.1333433792749
 20
128.5577583257171
 10
654.9333433792708
 20
128.5577583257171
 10
654.9333433792708
 20
125.657758325717
 10
645.1333433792751
 20
125.657758325717
 10
645.1333433792751
 20
128.5577583257171
 10
634.9333433792708
 20
128.5577583257171
 10
634.9333433792708
 20
125.657758325717
 10
625.1333433792749
 20
125.657758325717
 10
625.1333433792749
 20
128.5577583257171
 10
614.9333433792707
 20
128.5577583257171
 10
614.9333433792707
 20
125.657758325717
 10
605.1333433792749
 20
125.657758325717
 10
605.1333433792749
 20
128.5577583257171
 10
594.9333433792705
 20
128.5577583257171
 10
594.9333433792705
 20
125.657758325717
 10
585.1333433792749
 20
125.657758325717
 10
585.1333433792749
 20
128.5577583257171
 10
574.9333433792708
 20
128.5577583257171
 10
574.9333433792708
 20
125.657758325717
 10
565.1333433792749
 20
125.657758325717
 10
565.1333433792749
 20
128.5577583257171
 10
554.9333433792708
 20
128.5577583257171
 10
554.9333433792708
 20
125.657758325717
 10
545.1333433792751
 20
125.657758325717
 10
545.1333433792751
 20
128.5577583257171
 10
534.9333433792706
 20
128.5577583257171
 10
534.9333433792706
 20
125.657758325717
 10
525.1333433792749
 20
125.6577583257169
 10
525.1333433792749
 20
128.5577583257171
 10
514.9333433792706
 20
128.5577583257171
 10
514.9333433792706
 20
125.657758325717
 10
505.1333433792749
 20
125.657758325717
 10
505.1333433792749
 20
128.5577583257171
 10
494.9333433792706
 20
128.5577583257171
 10
494.9333433792706
 20
125.657758325717
 10
485.133343379275
 20
125.657758325717
 10
485.133343379275
 20
128.5577583257171
 10
474.9333433792708
 20
128.5577583257171
 10
474.9333433792708
 20
125.657758325717
 10
465.133343379275
 20
125.657758325717
 10
465.133343379275
 20
128.5577583257171
 10
454.9333433792708
 20
128.5577583257171
 10
454.9333433792708
 20
125.657758325717
 10
445.1333433792751
 20
125.6577583257169
 10
445.1333433792751
 20
128.5577583257171
 10
434.9333433792708
 20
128.5577583257171
 10
434.9333433792708
 20
125.657758325717
 10
425.133343379275
 20
125.657758325717
 10
425.133343379275
 20
128.5577583257171
 10
414.9333433792707
 20
128.5577583257171
 10
414.9333433792707
 20
125.657758325717
 10
405.1333433792751
 20
125.657758325717
 10
405.1333433792751
 20
128.5577583257171
 10
394.9333433792708
 20
128.5577583257171
 10
394.9333433792708
 20
125.657758325717
 10
385.1333433792752
 20
125.6577583257171
 10
385.1333433792752
 20
128.5577583257171
 10
374.9333433792708
 20
128.5577583257171
 10
374.9333433792708
 20
125.657758325717
 10
365.1333433792751
 20
125.657758325717
 10
365.1333433792751
 20
128.5577583257171
 10
354.9333433792708
 20
128.5577583257171
 10
354.9333433792708
 20
125.657758325717
 10
345.1333433792752
 20
125.6577583257169
 10
345.1333433792752
 20
128.5577583257171
 10
334.9333433792708
 20
128.5577583257171
 10
334.9333433792708
 20
125.657758325717
 10
325.1333433792752
 20
125.657758325717
 10
325.1333433792752
 20
128.5577583257171
 10
314.9333433792708
 20
128.5577583257171
 10
314.9333433792708
 20
125.657758325717
 10
305.1333433792751
 20
125.6577583257171
 10
305.1333433792751
 20
128.5577583257171
 10
294.9333433792708
 20
128.5577583257171
 10
294.9333433792708
 20
125.657758325717
 10
285.1333433792752
 20
125.657758325717
 10
285.1333433792752
 20
128.5577583257171
 10
274.9333433792708
 20
128.5577583257171
 10
274.9333433792708
 20
125.657758325717
 10
265.1333433792751
 20
125.6577583257171
 10
265.1333433792751
 20
128.5577583257171
 10
254.9333433792708
 20
128.5577583257171
 10
254.9333433792708
 20
125.657758325717
 10
245.1333433792751
 20
125.657758325717
 10
245.1333433792751
 20
128.5577583257171
 10
234.9333433792708
 20
128.5577583257171
 10
234.9333433792708
 20
125.657758325717
 10
225.1333433792751
 20
125.657758325717
 10
225.1333433792751
 20
128.5577583257171
 10
214.9333433792708
 20
128.5577583257171
 10
214.9333433792708
 20
125.657758325717
 10
205.1333433792751
 20
125.6577583257169
 10
205.1333433792751
 20
128.5577583257171
 10
194.9333433792708
 20
128.5577583257171
 10
194.9333433792708
 20
125.657758325717
 10
187.1333433792751
 20
125.657758325717
 10
187.1333433792751
 20
133.4577583257126
 10
190.033343379273
 20
133.4577583257126
 10
190.033343379273
 20
143.657758325717
 10
187.1333433792751
 20
143.657758325717
 10
187.1333433792751
 20
153.4577583257125
 10
190.033343379273
 20
153.4577583257125
 10
190.033343379273
 20
163.657758325717
 10
187.1333433792751
 20
163.657758325717
 10
187.1333433792751
 20
173.4577583257125
 10
190.033343379273
 20
173.4577583257125
 10
190.033343379273
 20
183.657758325717
 10
187.1333433792751
 20
183.657758325717
 10
187.1333433792751
 20
193.4577583257125
 10
190.033343379273
 20
193.4577583257125
 10
190.033343379273
 20
203.657758325717
 10
187.1333433792751
 20
203.657758325717
 10
187.1333433792751
 20
213.4577583257127
 10
190.033343379273
 20
213.4577583257127
 10
190.033343379273
 20
223.657758325717
 10
187.1333433792751
 20
223.657758325717
 10
187.1333433792751
 20
233.4577583257126
 10
190.033343379273
 20
233.4577583257126
 10
190.033343379273
 20
243.657758325717
 10
187.1333433792751
 20
243.657758325717
 10
187.1333433792751
 20
253.4577583257127
 10
190.033343379273
 20
253.4577583257127
 10
190.033343379273
 20
263.657758325717
 10
187.1333433792751
 20
263.657758325717
 10
187.1333433792751
 20
273.4577583257126
 10
190.033343379273
 20
273.4577583257126
 10
190.033343379273
 20
283.6577583257171
 10
187.1333433792751
 20
283.6577583257171
 10
187.1333433792751
 20
293.4577583257127
 10
190.033343379273
 20
293.4577583257127
 10
190.033343379273
 20
303.657758325717
 10
187.1333433792751
 20
303.657758325717
 10
187.1333433792751
 20
313.4577583257126
 10
190.033343379273
 20
313.4577583257126
 10
190.033343379273
 20
323.6577583257171
 10
187.1333433792751
 20
323.6577583257171
 10
187.1333433792751
 20
333.4577583257126
 10
190.033343379273
 20
333.4577583257126
 10
190.033343379273
 20
343.6577583257172
 10
187.1333433792751
 20
343.6577583257172
 10
187.1333433792751
 20
353.4577583257128
 10
190.033343379273
 20
353.4577583257128
 10
190.033343379273
 20
363.657758325717
 10
187.1333433792751
 20
363.657758325717
 10
187.1333433792751
 20
373.4577583257127
 10
190.033343379273
 20
373.4577583257127
 10
190.033343379273
 20
383.6577583257172
 10
187.1333433792751
 20
383.6577583257172
 10
187.1333433792751
 20
393.4577583257127
 10
190.033343379273
 20
393.4577583257127
 10
190.033343379273
 20
403.6577583257169
 10
187.1333433792751
 20
403.6577583257169
 10
187.1333433792751
 20
413.4577583257127
 10
190.033343379273
 20
413.4577583257127
 10
190.033343379273
 20
423.6577583257171
 10
187.1333433792751
 20
423.6577583257171
 10
187.1333433792751
 20
433.4577583257127
 10
190.033343379273
 20
433.4577583257127
 10
190.033343379273
 20
443.657758325717
 10
187.1333433792751
 20
443.657758325717
 10
187.1333433792751
 20
453.4577583257126
 10
190.033343379273
 20
453.4577583257126
 10
190.033343379273
 20
463.657758325717
 10
187.1333433792751
 20
463.657758325717
 10
187.1333433792751
 20
473.4577583257126
 10
190.033343379273
 20
473.4577583257126
 10
190.033343379273
 20
483.6577583257168
 10
187.1333433792751
 20
483.6577583257168
 10
187.1333433792751
 20
493.4577583257127
 10
190.033343379273
 20
493.4577583257127
 10
190.033343379273
 20
503.6577583257169
 10
187.1333433792751
 20
503.6577583257169
 10
187.1333433792751
 20
513.4577583257124
 10
190.033343379273
 20
513.4577583257124
 10
190.033343379273
 20
523.6577583257171
 10
187.1333433792751
 20
523.6577583257171
 10
187.1333433792751
 20
533.4577583257124
 10
190.033343379273
 20
533.4577583257124
 10
190.033343379273
 20
543.657758325717
 10
187.1333433792751
 20
543.657758325717
 10
187.1333433792751
 20
553.4577583257124
 10
190.033343379273
 20
553.4577583257124
 10
190.033343379273
 20
563.657758325717
 10
187.1333433792751
 20
563.657758325717
 10
187.1333433792751
 20
573.4577583257125
 10
190.033343379273
 20
573.4577583257125
 10
190.033343379273
 20
583.6577583257168
 10
187.1333433792751
 20
583.6577583257168
 10
187.1333433792751
 20
593.4577583257127
 10
190.033343379273
 20
593.4577583257127
 10
190.033343379273
 20
603.6577583257168
 10
187.1333433792751
 20
603.6577583257168
 10
187.1333433792751
 20
613.4577583257127
 10
190.033343379273
 20
613.4577583257127
 10
190.033343379273
 20
623.6577583257168
 10
187.1333433792751
 20
623.6577583257168
 10
187.1333433792751
 20
631.4577583257126
  0
LWPOLYLINE
  5
2F5
330
1F
100
AcDbEntity
  8
interior cut 3
100
AcDbPolyline
 90
        4
 70
     1
 43
0.0
 10
703.9833433792723
 20
633.7577583257174
 10
707.1833433792717
 20
633.7577583257174
 10
707.1833433792717
 20
623.5577583257172
 10
703.9833433792723
 20
623.5577583257172
  0
LWPOLYLINE
  5
2F6
330
1F
100
AcDbEntity
  8
interior cut 3
100
AcDbPolyline
 90
        4
 70
     1
 43
0.0
 10
707.1833433792717
 20
613.7577583257174
 10
703.9833433792723
 20
613.7577583257174
 10
703.9833433792723
 20
603.5577583257174
 10
707.1833433792717
 20
603.5577583257174
  0
LWPOLYLINE
  5
2F7
330
1F
100
AcDbEntity
  8
interior cut 3
100
AcDbPolyline
 90
        4
 70
     1
 43
0.0
 10
707.1833433792717
 20
593.7577583257174
 10
703.9833433792723
 20
593.7577583257174
 10
703.9833433792723
 20
583.5577583257173
 10
707.1833433792717
 20
583.5577583257173
  0
LWPOLYLINE
  5
2F8
330
1F
100
AcDbEntity
  8
interior cut 3
100
AcDbPolyline
 90
        4
 70
     1
 43
0.0
 10
707.1833433792717
 20
573.7577583257174
 10
703.9833433792723
 20
573.7577583257174
 10
703.9833433792723
 20
563.5577583257172
 10
707.1833433792717
 20
563.5577583257172
  0
LWPOLYLINE
  5
2F9
330
1F
100
AcDbEntity
  8
interior cut 3
100
AcDbPolyline
 90
        4
 70
     1
 43
0.0
 10
707.1833433792717
 20
553.7577583257172
 10
703.9833433792723
 20
553.7577583257172
 10
703.9833433792723
 20
543.5577583257172
 10
707.1833433792717
 20
543.5577583257172
  0
LWPOLYLINE
  5
2FA
330
1F
100
AcDbEntity
  8
interior cut 3
100
AcDbPolyline
 90
        4
 70
     1
 43
0.0
 10
707.1833433792717
 20
533.7577583257171
 10
703.9833433792723
 20
533.7577583257171
 10
703.9833433792723
 20
523.5577583257174
 10
707.1833433792717
 20
523.5577583257174
  0
LWPOLYLINE
  5
2FB
330
1F
100
AcDbEntity
  8
interior cut 3
100
AcDbPolyline
 90
        4
 70
     1
 43
0.0
 10
707.1833433792717
 20
513.7577583257173
 10
703.9833433792723
 20
513.7577583257173
 10
703.9833433792723
 20
503.5577583257174
 10
707.1833433792717
 20
503.5577583257174
  0
LWPOLYLINE
  5
2FC
330
1F
100
AcDbEntity
  8
interior cut 3
100
AcDbPolyline
 90
        4
 70
     1
 43
0.0
 10
707.1833433792717
 20
493.7577583257173
 10
703.9833433792723
 20
493.7577583257173
 10
703.9833433792723
 20
483.5577583257173
 10
707.1833433792717
 20
483.5577583257173
  0
LWPOLYLINE
  5
2FD
330
1F
100
AcDbEntity
  8
interior cut 3
100
AcDbPolyline
 90
        4
 70
     1
 43
0.0
 10
707.1833433792717
 20
473.7577583257174
 10
703.9833433792723
 20
473.7577583257174
 10
703.9833433792723
 20
463.5577583257171
 10
707.1833433792717
 20
463.5577583257171
  0
LWPOLYLINE
  5
2FE
330
1F
100
AcDbEntity
  8
interior cut 3
100
AcDbPolyline
 90
        4
 70
     1
 43
0.0
 10
707.1833433792717
 20
453.7577583257172
 10
703.9833433792723
 20
453.7577583257172
 10
703.9833433792723
 20
443.5577583257173
 10
707.1833433792717
 20
443.5577583257173
  0
LWPOLYLINE
  5
2FF
330
1F
100
AcDbEntity
  8
interior cut 3
100
AcDbPolyline
 90
        4
 70
     1
 43
0.0
 10
707.1833433792717
 20
433.7577583257171
 10
703.9833433792723
 20
433.7577583257171
 10
703.9833433792723
 20
423.5577583257175
 10
707.1833433792717
 20
423.5577583257175
  0
LWPOLYLINE
  5
300
330
1F
100
AcDbEntity
  8
interior cut 3
100
AcDbPolyline
 90
        4
 70
     1
 43
0.0
 10
707.1833433792717
 20
413.7577583257173
 10
703.9833433792723
 20
413.7577583257173
 10
703.9833433792723
 20
403.5577583257174
 10
707.1833433792717
 20
403.5577583257174
  0
LWPOLYLINE
  5
301
330
1F
100
AcDbEntity
  8
interior cut 3
100
AcDbPolyline
 90
        4
 70
     1
 43
0.0
 10
707.1833433792717
 20
393.7577583257174
 10
703.9833433792723
 20
393.7577583257174
 10
703.9833433792723
 20
383.5577583257175
 10
707.1833433792717
 20
383.5577583257175
  0
LWPOLYLINE
  5
302
330
1F
100
AcDbEntity
  8
interior cut 3
100
AcDbPolyline
 90
        4
 70
     1
 43
0.0
 10
707.1833433792717
 20
373.7577583257174
 10
703.9833433792723
 20
373.7577583257174
 10
703.9833433792723
 20
363.5577583257175
 10
707.1833433792717
 20
363.5577583257175
  0
LWPOLYLINE
  5
303
330
1F
100
AcDbEntity
  8
interior cut 3
100
AcDbPolyline
 90
        4
 70
     1
 43
0.0
 10
707.1833433792717
 20
353.7577583257174
 10
703.9833433792723
 20
353.7577583257174
 10
703.9833433792723
 20
343.5577583257174
 10
707.1833433792717
 20
343.5577583257174
  0
LWPOLYLINE
  5
304
330
1F
100
AcDbEntity
  8
interior cut 3
100
AcDbPolyline
 90
        4
 70
     1
 43
0.0
 10
707.1833433792717
 20
333.7577583257174
 10
703.9833433792723
 20
333.7577583257174
 10
703.9833433792723
 20
323.5577583257174
 10
707.1833433792717
 20
323.5577583257174
  0
LWPOLYLINE
  5
305
330
1F
100
AcDbEntity
  8
interior cut 3
100
AcDbPolyline
 90
        4
 70
     1
 43
0.0
 10
707.1833433792717
 20
313.7577583257173
 10
703.9833433792723
 20
313.7577583257173
 10
703.9833433792723
 20
303.5577583257174
 10
707.1833433792717
 20
303.5577583257174
  0
LWPOLYLINE
  5
306
330
1F
100
AcDbEntity
  8
interior cut 3
100
AcDbPolyline
 90
        4
 70
     1
 43
0.0
 10
707.1833433792717
 20
293.7577583257174
 10
703.9833433792723
 20
293.7577583257174
 10
703.9833433792723
 20
283.5577583257174
 10
707.1833433792717
 20
283.5577583257174
  0
LWPOLYLINE
  5
307
330
1F
100
AcDbEntity
  8
interior cut 3
100
AcDbPolyline
 90
        4
 70
     1
 43
0.0
 10
707.1833433792717
 20
273.7577583257174
 10
703.9833433792723
 20
273.7577583257174
 10
703.9833433792723
 20
263.5577583257174
 10
707.1833433792717
 20
263.5577583257174
  0
LWPOLYLINE
  5
308
330
1F
100
AcDbEntity
  8
interior cut 3
100
AcDbPolyline
 90
        4
 70
     1
 43
0.0
 10
707.1833433792717
 20
253.7577583257173
 10
703.9833433792723
 20
253.7577583257173
 10
703.9833433792723
 20
243.5577583257174
 10
707.1833433792717
 20
243.5577583257174
  0
LWPOLYLINE
  5
309
330
1F
100
AcDbEntity
  8
interior cut 3
100
AcDbPolyline
 90
        4
 70
     1
 43
0.0
 10
707.1833433792717
 20
233.7577583257173
 10
703.9833433792723
 20
233.7577583257173
 10
703.9833433792723
 20
223.5577583257175
 10
707.1833433792717
 20
223.5577583257175
  0
LWPOLYLINE
  5
30A
330
1F
100
AcDbEntity
  8
interior cut 3
100
AcDbPolyline
 90
        4
 70
     1
 43
0.0
 10
707.1833433792717
 20
213.7577583257173
 10
703.9833433792723
 20
213.7577583257173
 10
703.9833433792723
 20
203.5577583257174
 10
707.1833433792717
 20
203.5577583257174
  0
LWPOLYLINE
  5
30B
330
1F
100
AcDbEntity
  8
interior cut 3
100
AcDbPolyline
 90
        4
 70
     1
 43
0.0
 10
707.1833433792717
 20
193.7577583257173
 10
703.9833433792723
 20
193.7577583257173
 10
703.9833433792723
 20
183.5577583257174
 10
707.1833433792717
 20
183.5577583257174
  0
LWPOLYLINE
  5
30C
330
1F
100
AcDbEntity
  8
interior cut 3
100
AcDbPolyline
 90
        4
 70
     1
 43
0.0
 10
707.1833433792717
 20
173.7577583257173
 10
703.9833433792723
 20
173.7577583257173
 10
703.9833433792723
 20
163.5577583257173
 10
707.1833433792717
 20
163.5577583257173
  0
LWPOLYLINE
  5
30D
330
1F
100
AcDbEntity
  8
interior cut 3
100
AcDbPolyline
 90
        4
 70
     1
 43
0.0
 10
707.1833433792717
 20
153.7577583257173
 10
703.9833433792723
 20
153.7577583257173
 10
703.9833433792723
 20
143.5577583257173
 10
707.1833433792717
 20
143.5577583257173
  0
LWPOLYLINE
  5
30E
330
1F
100
AcDbEntity
  8
interior cut 3
100
AcDbPolyline
 90
        4
 70
     1
 43
0.0
 10
707.1833433792717
 20
133.7577583257173
 10
703.9833433792723
 20
133.7577583257173
 10
703.9833433792723
 20
123.5577583257173
 10
707.1833433792717
 20
123.5577583257173
  0
LWPOLYLINE
  5
30F
330
1F
100
AcDbEntity
  8
interior cut 3
100
AcDbPolyline
 90
        4
 70
     1
 43
0.0
 10
184.9333433792751
 20
642.4077583257187
 10
195.1333433792708
 20
642.4077583257187
 10
195.1333433792708
 20
645.6077583257183
 10
184.9333433792751
 20
645.6077583257183
  0
LWPOLYLINE
  5
310
330
1F
100
AcDbEntity
  8
interior cut 3
100
AcDbPolyline
 90
        4
 70
     1
 43
0.0
 10
204.9333433792751
 20
642.4077583257187
 10
215.1333433792708
 20
642.4077583257187
 10
215.1333433792708
 20
645.6077583257183
 10
204.9333433792751
 20
645.6077583257183
  0
LWPOLYLINE
  5
311
330
1F
100
AcDbEntity
  8
interior cut 3
100
AcDbPolyline
 90
        4
 70
     1
 43
0.0
 10
224.9333433792751
 20
642.4077583257187
 10
235.1333433792707
 20
642.4077583257187
 10
235.1333433792707
 20
645.6077583257183
 10
224.9333433792751
 20
645.6077583257183
  0
LWPOLYLINE
  5
312
330
1F
100
AcDbEntity
  8
interior cut 3
100
AcDbPolyline
 90
        4
 70
     1
 43
0.0
 10
244.9333433792752
 20
642.4077583257187
 10
255.1333433792708
 20
642.4077583257187
 10
255.1333433792708
 20
645.6077583257183
 10
244.9333433792752
 20
645.6077583257183
  0
LWPOLYLINE
  5
313
330
1F
100
AcDbEntity
  8
interior cut 3
100
AcDbPolyline
 90
        4
 70
     1
 43
0.0
 10
264.9333433792752
 20
642.4077583257187
 10
275.1333433792709
 20
642.4077583257187
 10
275.1333433792709
 20
645.6077583257183
 10
264.9333433792752
 20
645.6077583257183
  0
LWPOLYLINE
  5
314
330
1F
100
AcDbEntity
  8
interior cut 3
100
AcDbPolyline
 90
        4
 70
     1
 43
0.0
 10
284.9333433792752
 20
642.4077583257187
 10
295.1333433792708
 20
642.4077583257187
 10
295.1333433792708
 20
645.6077583257183
 10
284.9333433792752
 20
645.6077583257183
  0
LWPOLYLINE
  5
315
330
1F
100
AcDbEntity
  8
interior cut 3
100
AcDbPolyline
 90
        4
 70
     1
 43
0.0
 10
304.9333433792753
 20
642.4077583257187
 10
315.1333433792709
 20
642.4077583257187
 10
315.1333433792709
 20
645.6077583257183
 10
304.9333433792753
 20
645.6077583257183
  0
LWPOLYLINE
  5
316
330
1F
100
AcDbEntity
  8
interior cut 3
100
AcDbPolyline
 90
        4
 70
     1
 43
0.0
 10
324.9333433792752
 20
642.4077583257187
 10
335.1333433792708
 20
642.4077583257187
 10
335.1333433792708
 20
645.6077583257183
 10
324.9333433792752
 20
645.6077583257183
  0
LWPOLYLINE
  5
317
330
1F
100
AcDbEntity
  8
interior cut 3
100
AcDbPolyline
 90
        4
 70
     1
 43
0.0
 10
344.9333433792752
 20
642.4077583257187
 10
355.1333433792708
 20
642.4077583257187
 10
355.1333433792708
 20
645.6077583257183
 10
344.9333433792752
 20
645.6077583257183
  0
LWPOLYLINE
  5
318
330
1F
100
AcDbEntity
  8
interior cut 3
100
AcDbPolyline
 90
        4
 70
     1
 43
0.0
 10
364.9333433792752
 20
642.4077583257187
 10
375.1333433792708
 20
642.4077583257187
 10
375.1333433792708
 20
645.6077583257183
 10
364.9333433792752
 20
645.6077583257183
  0
LWPOLYLINE
  5
319
330
1F
100
AcDbEntity
  8
interior cut 3
100
AcDbPolyline
 90
        4
 70
     1
 43
0.0
 10
384.9333433792752
 20
642.4077583257187
 10
395.1333433792708
 20
642.4077583257187
 10
395.1333433792708
 20
645.6077583257183
 10
384.9333433792752
 20
645.6077583257183
  0
LWPOLYLINE
  5
31A
330
1F
100
AcDbEntity
  8
interior cut 3
100
AcDbPolyline
 90
        4
 70
     1
 43
0.0
 10
404.9333433792751
 20
642.4077583257187
 10
415.1333433792706
 20
642.4077583257187
 10
415.1333433792706
 20
645.6077583257183
 10
404.9333433792751
 20
645.6077583257183
  0
LWPOLYLINE
  5
31B
330
1F
100
AcDbEntity
  8
interior cut 3
100
AcDbPolyline
 90
        4
 70
     1
 43
0.0
 10
424.9333433792751
 20
642.4077583257187
 10
435.1333433792706
 20
642.4077583257187
 10
435.1333433792706
 20
645.6077583257183
 10
424.9333433792751
 20
645.6077583257183
  0
LWPOLYLINE
  5
31C
330
1F
100
AcDbEntity
  8
interior cut 3
100
AcDbPolyline
 90
        4
 70
     1
 43
0.0
 10
444.9333433792752
 20
642.4077583257187
 10
455.1333433792708
 20
642.4077583257187
 10
455.1333433792708
 20
645.6077583257183
 10
444.9333433792752
 20
645.6077583257183
  0
LWPOLYLINE
  5
31D
330
1F
100
AcDbEntity
  8
interior cut 3
100
AcDbPolyline
 90
        4
 70
     1
 43
0.0
 10
464.9333433792752
 20
642.4077583257187
 10
475.1333433792708
 20
642.4077583257187
 10
475.1333433792708
 20
645.6077583257183
 10
464.9333433792752
 20
645.6077583257183
  0
LWPOLYLINE
  5
31E
330
1F
100
AcDbEntity
  8
interior cut 3
100
AcDbPolyline
 90
        4
 70
     1
 43
0.0
 10
484.9333433792749
 20
642.4077583257187
 10
495.1333433792708
 20
642.4077583257187
 10
495.1333433792708
 20
645.6077583257183
 10
484.9333433792749
 20
645.6077583257183
  0
LWPOLYLINE
  5
31F
330
1F
100
AcDbEntity
  8
interior cut 3
100
AcDbPolyline
 90
        4
 70
     1
 43
0.0
 10
504.933343379275
 20
642.4077583257187
 10
515.1333433792706
 20
642.4077583257187
 10
515.1333433792706
 20
645.6077583257183
 10
504.933343379275
 20
645.6077583257183
  0
LWPOLYLINE
  5
320
330
1F
100
AcDbEntity
  8
interior cut 3
100
AcDbPolyline
 90
        4
 70
     1
 43
0.0
 10
524.9333433792751
 20
642.4077583257187
 10
535.1333433792706
 20
642.4077583257187
 10
535.1333433792706
 20
645.6077583257183
 10
524.9333433792751
 20
645.6077583257183
  0
LWPOLYLINE
  5
321
330
1F
100
AcDbEntity
  8
interior cut 3
100
AcDbPolyline
 90
        4
 70
     1
 43
0.0
 10
544.9333433792751
 20
642.4077583257187
 10
555.1333433792706
 20
642.4077583257187
 10
555.1333433792706
 20
645.6077583257183
 10
544.9333433792751
 20
645.6077583257183
  0
LWPOLYLINE
  5
322
330
1F
100
AcDbEntity
  8
interior cut 3
100
AcDbPolyline
 90
        4
 70
     1
 43
0.0
 10
564.9333433792751
 20
642.4077583257187
 10
575.1333433792707
 20
642.4077583257187
 10
575.1333433792707
 20
645.6077583257183
 10
564.9333433792751
 20
645.6077583257183
  0
LWPOLYLINE
  5
323
330
1F
100
AcDbEntity
  8
interior cut 3
100
AcDbPolyline
 90
        4
 70
     1
 43
0.0
 10
584.9333433792751
 20
642.4077583257187
 10
595.1333433792707
 20
642.4077583257187
 10
595.1333433792707
 20
645.6077583257183
 10
584.9333433792751
 20
645.6077583257183
  0
LWPOLYLINE
  5
324
330
1F
100
AcDbEntity
  8
interior cut 3
100
AcDbPolyline
 90
        4
 70
     1
 43
0.0
 10
604.9333433792751
 20
642.4077583257187
 10
615.1333433792707
 20
642.4077583257187
 10
615.1333433792707
 20
645.6077583257183
 10
604.9333433792751
 20
645.6077583257183
  0
LWPOLYLINE
  5
325
330
1F
100
AcDbEntity
  8
interior cut 3
100
AcDbPolyline
 90
        4
 70
     1
 43
0.0
 10
624.933343379275
 20
642.4077583257187
 10
635.1333433792707
 20
642.4077583257187
 10
635.1333433792707
 20
645.6077583257183
 10
624.933343379275
 20
645.6077583257183
  0
LWPOLYLINE
  5
326
330
1F
100
AcDbEntity
  8
interior cut 3
100
AcDbPolyline
 90
        4
 70
     1
 43
0.0
 10
644.9333433792751
 20
642.4077583257187
 10
655.1333433792707
 20
642.4077583257187
 10
655.1333433792707
 20
645.6077583257183
 10
644.9333433792751
 20
645.6077583257183
  0
LWPOLYLINE
  5
327
330
1F
100
AcDbEntity
  8
interior cut 3
100
AcDbPolyline
 90
        4
 70
     1
 43
0.0
 10
664.9333433792751
 20
642.4077583257187
 10
675.1333433792709
 20
642.4077583257187
 10
675.1333433792709
 20
645.6077583257183
 10
664.9333433792751
 20
645.6077583257183
  0
LWPOLYLINE
  5
328
330
1F
100
AcDbEntity
  8
interior cut 3
100
AcDbPolyline
 90
        4
 70
     1
 43
0.0
 10
684.9333433792751
 20
642.4077583257187
 10
695.1333433792707
 20
642.4077583257187
 10
695.1333433792707
 20
645.6077583257183
 10
684.9333433792751
 20
645.6077583257183
  0
LWPOLYLINE
  5
329
330
1F
100
AcDbEntity
  8
engrave
100
AcDbPolyline
 90
        4
 70
     1
 43
0.0
 10
707.1833433792717
 20
111.4077583257156
 10
172.8833433792744
 20
111.4077583257155
 10
172.8833433792744
 20
645.6077583257183
 10
707.1833433792717
 20
645.6077583257183
  0
LWPOLYLINE
  5
331
330
1F
100
AcDbEntity
  8
exterior cut
100
AcDbPolyline
 90
      323
 70
     0
 43
0.0
 10
988.5612370648345
 20
3.657758325719553
 10
988.5612370648345
 20
13.75775832572174
 10
985.5612370648378
 20
13.75775832572174
 10
985.5612370648378
 20
23.55775832571737
 10
988.5612370648345
 20
23.55775832571737
 10
988.5612370648345
 20
33.75775832572174
 10
985.5612370648341
 20
33.75775832572174
 10
985.5612370648378
 20
43.55775832571738
 10
988.5612370648345
 20
43.55775832571738
 10
988.5612370648345
 20
53.75775832572173
 10
985.5612370648378
 20
53.75775832572173
 10
985.5612370648378
 20
63.55775832571736
 10
988.5612370648345
 20
63.55775832571736
 10
988.5612370648345
 20
73.75775832572172
 10
985.5893397139553
 20
73.75775832572172
 10
985.5893397139553
 20
83.55775832571737
 10
988.5612370648345
 20
83.55775832571737
 10
988.5612370648345
 20
93.75775832572173
 10
985.5893397139553
 20
93.75775832572173
 10
985.5893397139553
 20
103.5577583257173
 10
988.5612370648345
 20
103.5577583257173
 10
988.5612370648345
 20
113.7577583257217
 10
985.5612370648341
 20
113.7577583257217
 10
985.5612370648341
 20
123.5577583257172
 10
988.5612370648345
 20
123.5577583257172
 10
988.5612370648345
 20
133.7577583257216
 10
985.5612370648341
 20
133.7577583257216
 10
985.5612370648341
 20
143.5577583257172
 10
988.5612370648345
 20
143.5577583257172
 10
988.5612370648345
 20
153.7577583257216
 10
985.5612370648341
 20
153.7577583257216
 10
985.5612370648341
 20
163.5577583257172
 10
988.5612370648345
 20
163.5577583257172
 10
988.5612370648345
 20
173.7577583257216
 10
985.5612370648341
 20
173.7577583257216
 10
985.5612370648341
 20
183.5577583257173
 10
988.5612370648345
 20
183.5577583257173
 10
988.5612370648345
 20
193.7577583257216
 10
985.5612370648341
 20
193.7577583257216
 10
985.5612370648341
 20
203.5577583257173
 10
988.5612370648345
 20
203.5577583257173
 10
988.5612370648345
 20
213.7577583257217
 10
985.5612370648341
 20
213.7577583257217
 10
985.5612370648341
 20
223.5577583257173
 10
988.5612370648345
 20
223.5577583257173
 10
988.5612370648345
 20
233.7577583257218
 10
985.5612370648341
 20
233.7577583257218
 10
985.5612370648341
 20
243.5577583257173
 10
988.5612370648345
 20
243.5577583257173
 10
988.5612370648345
 20
253.7577583257216
 10
985.5612370648341
 20
253.7577583257216
 10
985.5612370648341
 20
263.5577583257174
 10
988.5612370648345
 20
263.5577583257174
 10
988.5612370648345
 20
273.7577583257217
 10
985.5612370648341
 20
273.7577583257217
 10
985.5612370648341
 20
283.5577583257174
 10
988.5612370648345
 20
283.5577583257174
 10
988.5612370648345
 20
293.7577583257217
 10
985.5612370648341
 20
293.7577583257217
 10
985.5612370648341
 20
303.5577583257174
 10
988.5612370648345
 20
303.5577583257174
 10
988.5612370648345
 20
313.7577583257217
 10
985.5612370648341
 20
313.7577583257217
 10
985.5612370648341
 20
323.5577583257174
 10
988.5612370648345
 20
323.5577583257174
 10
988.5612370648345
 20
333.7577583257218
 10
985.5612370648341
 20
333.7577583257218
 10
985.5612370648341
 20
343.5577583257174
 10
988.5612370648345
 20
343.5577583257174
 10
988.5612370648345
 20
353.7577583257217
 10
985.5612370648341
 20
353.7577583257217
 10
985.5612370648341
 20
363.5577583257175
 10
988.5612370648345
 20
363.5577583257175
 10
988.5612370648345
 20
373.7577583257217
 10
985.5612370648341
 20
373.7577583257217
 10
985.5612370648341
 20
383.5577583257175
 10
988.5612370648345
 20
383.5577583257175
 10
988.5612370648345
 20
393.7577583257219
 10
985.5612370648341
 20
393.7577583257219
 10
985.5612370648341
 20
403.5577583257174
 10
988.5612370648345
 20
403.5577583257174
 10
988.5612370648345
 20
413.7577583257217
 10
985.5612370648341
 20
413.7577583257217
 10
985.5612370648378
 20
423.5577583257172
 10
988.5612370648345
 20
423.5577583257172
 10
988.5612370648345
 20
433.7577583257215
 10
985.5612370648341
 20
433.7577583257215
 10
985.5612370648341
 20
443.5577583257171
 10
988.5612370648345
 20
443.5577583257171
 10
988.5612370648345
 20
453.7577583257216
 10
985.5612370648341
 20
453.7577583257216
 10
985.5612370648341
 20
463.5577583257174
 10
988.5612370648345
 20
463.5577583257174
 10
988.5612370648345
 20
473.7577583257216
 10
985.5612370648341
 20
473.7577583257216
 10
985.5612370648341
 20
483.5577583257172
 10
988.5612370648345
 20
483.5577583257172
 10
988.5612370648345
 20
493.7577583257216
 10
985.5612370648341
 20
493.7577583257216
 10
985.5612370648341
 20
503.5577583257171
 10
988.5612370648345
 20
503.5577583257171
 10
988.5612370648345
 20
513.7577583257215
 10
985.5612370648341
 20
513.7577583257215
 10
985.5612370648341
 20
523.5577583257171
 10
988.5612370648345
 20
523.5577583257171
 10
988.5612370648345
 20
533.7577583257217
 10
985.5612370648341
 20
533.7577583257217
 10
985.5612370648341
 20
543.5577583257173
 10
988.5612370648345
 20
543.5577583257173
 10
988.5612370648345
 20
553.7577583257217
 10
985.5612370648341
 20
553.7577583257217
 10
985.5612370648341
 20
563.5577583257173
 10
988.5612370648345
 20
563.5577583257173
 10
988.5612370648345
 20
573.7577583257217
 10
985.5612370648341
 20
573.7577583257217
 10
985.5612370648341
 20
583.5577583257173
 10
988.5612370648345
 20
583.5577583257173
 10
988.5612370648345
 20
593.7577583257215
 10
985.5612370648341
 20
593.7577583257215
 10
985.5612370648341
 20
603.5577583257174
 10
988.5612370648345
 20
603.5577583257174
 10
988.5612370648345
 20
613.7577583257216
 10
985.5612370648341
 20
613.7577583257216
 10
985.5612370648341
 20
623.5577583257171
 10
988.5612370648345
 20
623.5577583257171
 10
988.5612370648345
 20
633.7577583257216
 10
985.5612370648341
 20
633.7577583257216
 10
985.5612370648378
 20
643.5577583257173
 10
988.5612370648345
 20
643.5577583257173
 10
988.5612370648345
 20
653.7577583257216
 10
985.5612370648378
 20
653.7577583257216
 10
985.5612370648378
 20
663.5577583257173
 10
985.5612370648378
 20
663.5577583257173
 10
988.5612370648345
 20
663.5577583257173
 10
988.5612370648345
 20
673.7577583257217
 10
985.5612370648378
 20
673.7577583257217
 10
985.5612370648378
 20
683.5577583257173
 10
988.5612370648345
 20
683.5577583257173
 10
988.5612370648345
 20
693.7577583257217
 10
985.5612370648378
 20
693.7577583257217
 10
985.5612370648378
 20
703.5577583257171
 10
988.5612370648345
 20
703.5577583257171
 10
988.5612370648345
 20
713.7577583257215
 10
985.5612370648378
 20
713.7577583257215
 10
985.5612370648378
 20
723.5577583257172
 10
988.5612370648345
 20
723.5577583257172
 10
988.5612370648345
 20
733.7577583257215
 10
985.5612370648378
 20
733.7577583257215
 10
985.5612370648378
 20
743.5577583257172
 10
988.5612370648345
 20
743.5577583257172
 10
988.5612370648345
 20
753.757758325718
 10
988.5612370648345
 20
753.757758325718
 10
988.5612370648345
 20
753.757758325718
 10
978.361237064837
 20
753.757758325718
 10
978.361237064837
 20
750.7577583257179
 10
968.5612370648341
 20
750.7577583257179
 10
968.5612370648341
 20
753.757758325718
 10
958.3612370648371
 20
753.757758325718
 10
958.3612370648371
 20
750.7577583257179
 10
948.5612370648341
 20
750.7577583257179
 10
948.5612370648341
 20
753.757758325718
 10
933.3612370648371
 20
753.757758325718
 10
933.3612370648371
 20
753.757758325718
 10
933.3612370648371
 20
743.5577583257172
 10
936.361237064837
 20
743.5577583257172
 10
936.361237064837
 20
733.7577583257215
 10
933.3612370648371
 20
733.7577583257215
 10
933.3612370648371
 20
723.5577583257172
 10
936.361237064837
 20
723.5577583257172
 10
936.361237064837
 20
713.7577583257215
 10
933.3612370648371
 20
713.7577583257215
 10
933.3612370648371
 20
703.5577583257171
 10
936.361237064837
 20
703.5577583257171
 10
936.361237064837
 20
693.7577583257217
 10
933.3612370648371
 20
693.7577583257217
 10
933.3612370648371
 20
683.5577583257173
 10
936.361237064837
 20
683.5577583257173
 10
936.361237064837
 20
673.7577583257217
 10
933.3612370648371
 20
673.7577583257217
 10
933.3612370648371
 20
663.5577583257173
 10
936.361237064837
 20
663.5577583257173
 10
936.361237064837
 20
663.5577583257173
 10
936.361237064837
 20
653.7577583257216
 10
933.3612370648371
 20
653.7577583257216
 10
933.3612370648371
 20
643.5577583257173
 10
936.361237064837
 20
643.5577583257173
 10
936.361237064837
 20
633.7577583257216
 10
933.3612370648371
 20
633.7577583257216
 10
933.3612370648371
 20
623.5577583257171
 10
936.361237064837
 20
623.5577583257171
 10
936.361237064837
 20
613.7577583257216
 10
933.3612370648371
 20
613.7577583257216
 10
933.3612370648371
 20
603.5577583257174
 10
936.361237064837
 20
603.5577583257174
 10
936.361237064837
 20
593.7577583257215
 10
933.3612370648371
 20
593.7577583257215
 10
933.3612370648371
 20
583.5577583257173
 10
936.361237064837
 20
583.5577583257173
 10
936.361237064837
 20
573.7577583257217
 10
933.3612370648371
 20
573.7577583257217
 10
933.3612370648371
 20
563.5577583257173
 10
936.361237064837
 20
563.5577583257173
 10
936.361237064837
 20
553.7577583257217
 10
933.3612370648371
 20
553.7577583257217
 10
933.3612370648371
 20
543.5577583257173
 10
936.361237064837
 20
543.5577583257173
 10
936.361237064837
 20
533.7577583257217
 10
933.3612370648371
 20
533.7577583257217
 10
933.3612370648371
 20
523.5577583257171
 10
936.361237064837
 20
523.5577583257171
 10
936.361237064837
 20
513.7577583257215
 10
933.3612370648371
 20
513.7577583257215
 10
933.3612370648371
 20
503.5577583257171
 10
936.361237064837
 20
503.5577583257171
 10
936.361237064837
 20
493.7577583257216
 10
933.3612370648371
 20
493.7577583257216
 10
933.3612370648371
 20
483.5577583257172
 10
936.361237064837
 20
483.5577583257172
 10
936.361237064837
 20
473.7577583257216
 10
933.3612370648371
 20
473.7577583257216
 10
933.3612370648371
 20
463.5577583257174
 10
936.361237064837
 20
463.5577583257174
 10
936.361237064837
 20
453.7577583257216
 10
933.3612370648371
 20
453.7577583257216
 10
933.3612370648371
 20
443.5577583257171
 10
936.361237064837
 20
443.5577583257171
 10
936.361237064837
 20
433.7577583257215
 10
933.3612370648371
 20
433.7577583257215
 10
933.3612370648371
 20
423.5577583257172
 10
936.361237064837
 20
423.5577583257172
 10
936.361237064837
 20
413.7577583257217
 10
933.3612370648371
 20
413.7577583257217
 10
933.3612370648371
 20
403.5577583257174
 10
936.361237064837
 20
403.5577583257174
 10
936.361237064837
 20
393.7577583257219
 10
933.3612370648371
 20
393.7577583257219
 10
933.3612370648371
 20
383.5577583257175
 10
936.361237064837
 20
383.5577583257175
 10
936.361237064837
 20
373.7577583257217
 10
933.3612370648371
 20
373.7577583257217
 10
933.3612370648371
 20
363.5577583257175
 10
936.361237064837
 20
363.5577583257175
 10
936.361237064837
 20
353.7577583257217
 10
933.3612370648371
 20
353.7577583257217
 10
933.3612370648371
 20
343.5577583257174
 10
936.361237064837
 20
343.5577583257174
 10
936.361237064837
 20
333.7577583257218
 10
933.3612370648371
 20
333.7577583257218
 10
933.3612370648371
 20
323.5577583257174
 10
936.361237064837
 20
323.5577583257174
 10
936.361237064837
 20
313.7577583257217
 10
933.3612370648371
 20
313.7577583257217
 10
933.3612370648371
 20
303.5577583257174
 10
936.361237064837
 20
303.5577583257174
 10
936.361237064837
 20
293.7577583257217
 10
933.3612370648371
 20
293.7577583257217
 10
933.3612370648371
 20
283.5577583257174
 10
936.361237064837
 20
283.5577583257174
 10
936.361237064837
 20
273.7577583257217
 10
933.3612370648371
 20
273.7577583257217
 10
933.3612370648371
 20
263.5577583257174
 10
936.361237064837
 20
263.5577583257174
 10
936.361237064837
 20
253.7577583257216
 10
933.3612370648371
 20
253.7577583257216
 10
933.3612370648371
 20
243.5577583257173
 10
936.361237064837
 20
243.5577583257173
 10
936.361237064837
 20
233.7577583257218
 10
933.3612370648371
 20
233.7577583257218
 10
933.3612370648371
 20
223.5577583257173
 10
936.361237064837
 20
223.5577583257173
 10
936.361237064837
 20
213.7577583257217
 10
933.3612370648371
 20
213.7577583257217
 10
933.3612370648371
 20
203.5577583257173
 10
936.361237064837
 20
203.5577583257173
 10
936.361237064837
 20
193.7577583257216
 10
933.3612370648371
 20
193.7577583257216
 10
933.3612370648371
 20
183.5577583257173
 10
936.361237064837
 20
183.5577583257173
 10
936.361237064837
 20
173.7577583257216
 10
933.3612370648371
 20
173.7577583257216
 10
933.3612370648371
 20
163.5577583257172
 10
936.361237064837
 20
163.5577583257172
 10
936.361237064837
 20
153.7577583257216
 10
933.3612370648371
 20
153.7577583257216
 10
933.3612370648371
 20
143.5577583257172
 10
936.361237064837
 20
143.5577583257172
 10
936.361237064837
 20
133.7577583257216
 10
933.3612370648371
 20
133.7577583257216
 10
933.3612370648371
 20
123.5577583257172
 10
936.361237064837
 20
123.5577583257172
 10
936.361237064837
 20
113.7577583257217
 10
933.3612370648371
 20
113.7577583257217
 10
933.3612370648371
 20
103.5577583257173
 10
936.3331344157158
 20
103.5577583257173
 10
936.3331344157158
 20
93.75775832572173
 10
933.3612370648371
 20
93.75775832572173
 10
933.3612370648371
 20
83.55775832571737
 10
936.3331344157158
 20
83.55775832571737
 10
936.3331344157158
 20
73.75775832572172
 10
933.3612370648371
 20
73.75775832572172
 10
933.3612370648371
 20
63.55775832571736
 10
936.361237064837
 20
63.55775832571736
 10
936.361237064837
 20
53.75775832572173
 10
933.3612370648371
 20
53.75775832572173
 10
933.3612370648371
 20
43.55775832571738
 10
936.361237064837
 20
43.55775832571738
 10
936.361237064837
 20
33.75775832572174
 10
933.3612370648371
 20
33.75775832572174
 10
933.3612370648371
 20
23.55775832571737
 10
936.361237064837
 20
23.55775832571737
 10
936.361237064837
 20
13.75775832572174
 10
933.3612370648371
 20
13.75775832572174
 10
933.3612370648371
 20
3.657758325719553
 10
948.5612370648341
 20
3.657758325719553
 10
948.5612370648341
 20
6.657758325719555
 10
958.3612370648371
 20
6.657758325719555
 10
958.3612370648371
 20
3.657758325719553
 10
968.5612370648341
 20
3.657758325719553
 10
968.5612370648341
 20
6.657758325719555
 10
978.361237064837
 20
6.657758325719555
 10
978.361237064837
 20
3.657758325719553
 10
988.5612370648345
 20
3.657758325719553
 10
988.5612370648345
 20
6.657758325719555
  0
CIRCLE
  5
33E
330
1F
100
AcDbEntity
  8
interior cut 1
100
AcDbCircle
 10
961.0451949180024
 20
21.59089477893588
 30
0.0
 40
7.689995254742028
  0
CIRCLE
  5
340
330
1F
100
AcDbEntity
  8
interior cut 1
100
AcDbCircle
 10
106.1583433792744
 20
60.34757051175984
 30
0.0
 40
8.25
  0
CIRCLE
  5
341
330
1F
100
AcDbEntity
  8
interior cut 1
100
AcDbCircle
 10
131.6583433792744
 20
60.34757051175984
 30
0.0
 40
8.25
  0
CIRCLE
  5
342
330
1F
100
AcDbEntity
  8
interior cut 1
100
AcDbCircle
 10
106.1583433792744
 20
676.9679461396749
 30
0.0
 40
8.25
  0
CIRCLE
  5
343
330
1F
100
AcDbEntity
  8
interior cut 1
100
AcDbCircle
 10
131.6583433792744
 20
676.9679461396749
 30
0.0
 40
8.25
  0
CIRCLE
  5
34D
330
1F
100
AcDbEntity
  8
interior cut 1
100
AcDbCircle
 10
770.908343379275
 20
60.34757051175984
 30
0.0
 40
8.25
  0
CIRCLE
  5
34E
330
1F
100
AcDbEntity
  8
interior cut 1
100
AcDbCircle
 10
745.408343379275
 20
60.34757051175984
 30
0.0
 40
8.25
  0
CIRCLE
  5
34F
330
1F
100
AcDbEntity
  8
interior cut 1
100
AcDbCircle
 10
770.908343379275
 20
676.9679461396749
 30
0.0
 40
8.25
  0
CIRCLE
  5
350
330
1F
100
AcDbEntity
  8
interior cut 1
100
AcDbCircle
 10
745.408343379275
 20
676.9679461396749
 30
0.0
 40
8.25
  0
LWPOLYLINE
  5
403
330
1F
100
AcDbEntity
  8
exterior cut
100
AcDbPolyline
 90
      105
 70
     0
 43
0.0
 10
176.0833433792736
 20
-37.48757229293055
 10
184.9333433792753
 20
-37.48757229293055
 10
195.1333433792751
 20
-37.48757229293055
 10
195.1333433792751
 20
-40.58757229293092
 10
204.9333433792754
 20
-40.58757229293092
 10
204.9333433792754
 20
-37.48757229293055
 10
215.1333433792752
 20
-37.48757229293055
 10
215.1333433792752
 20
-40.58757229293092
 10
224.9333433792754
 20
-40.58757229293092
 10
224.9333433792754
 20
-37.48757229293055
 10
235.1333433792752
 20
-37.48757229293055
 10
235.1333433792752
 20
-40.58757229293092
 10
244.9333433792753
 20
-40.58757229293092
 10
244.9333433792753
 20
-37.48757229293055
 10
255.1333433792752
 20
-37.48757229293055
 10
255.1333433792752
 20
-40.58757229293092
 10
264.9333433792754
 20
-40.58757229293092
 10
264.9333433792754
 20
-37.48757229293055
 10
275.1333433792749
 20
-37.48757229293055
 10
275.1333433792749
 20
-40.58757229293092
 10
284.9333433792754
 20
-40.58757229293092
 10
284.9333433792754
 20
-37.48757229293055
 10
295.133343379275
 20
-37.48757229293055
 10
295.133343379275
 20
-40.58757229293092
 10
304.9333433792754
 20
-40.58757229293092
 10
304.9333433792754
 20
-37.48757229293055
 10
315.1333433792749
 20
-37.48757229293055
 10
315.1333433792749
 20
-40.58757229293092
 10
324.9333433792751
 20
-40.58757229293092
 10
324.9333433792751
 20
-37.48757229293055
 10
335.133343379275
 20
-37.48757229293055
 10
335.133343379275
 20
-40.58757229293092
 10
344.9333433792753
 20
-40.58757229293092
 10
344.9333433792753
 20
-37.48757229293055
 10
355.1333433792749
 20
-37.48757229293055
 10
355.1333433792749
 20
-40.58757229293092
 10
364.9333433792754
 20
-40.58757229293092
 10
364.9333433792754
 20
-37.48757229293055
 10
375.1333433792752
 20
-37.48757229293055
 10
375.1333433792752
 20
-40.58757229293092
 10
384.9333433792754
 20
-40.58757229293092
 10
384.9333433792754
 20
-37.48757229293055
 10
395.133343379275
 20
-37.48757229293055
 10
395.133343379275
 20
-40.58757229293092
 10
404.9333433792753
 20
-40.58757229293092
 10
404.9333433792753
 20
-37.48757229293055
 10
415.1333433792752
 20
-37.48757229293055
 10
415.1333433792752
 20
-40.58757229293092
 10
424.9333433792753
 20
-40.58757229293092
 10
424.9333433792753
 20
-37.48757229293055
 10
435.1333433792749
 20
-37.48757229293055
 10
435.1333433792749
 20
-40.58757229293092
 10
444.9333433792753
 20
-40.58757229293092
 10
444.9333433792753
 20
-37.48757229293055
 10
455.1333433792751
 20
-37.48757229293055
 10
455.1333433792751
 20
-40.58757229293092
 10
464.9333433792751
 20
-40.58757229293092
 10
464.9333433792751
 20
-37.48757229293055
 10
475.1333433792751
 20
-37.48757229293055
 10
475.1333433792751
 20
-40.58757229293092
 10
484.9333433792751
 20
-40.58757229293092
 10
484.9333433792751
 20
-37.48757229293055
 10
495.1333433792749
 20
-37.48757229293055
 10
495.1333433792749
 20
-40.58757229293092
 10
504.9333433792753
 20
-40.58757229293092
 10
504.9333433792753
 20
-37.48757229293055
 10
515.1333433792752
 20
-37.48757229293055
 10
515.1333433792752
 20
-40.58757229293092
 10
524.9333433792751
 20
-40.58757229293092
 10
524.9333433792751
 20
-37.48757229293055
 10
535.1333433792749
 20
-37.48757229293055
 10
535.1333433792749
 20
-40.58757229293092
 10
544.9333433792751
 20
-40.58757229293092
 10
544.9333433792751
 20
-37.48757229293055
 10
555.1333433792751
 20
-37.48757229293055
 10
555.1333433792751
 20
-40.58757229293092
 10
564.9333433792751
 20
-40.58757229293092
 10
564.9333433792751
 20
-37.48757229293055
 10
575.1333433792749
 20
-37.48757229293055
 10
575.1333433792749
 20
-40.58757229293092
 10
584.9333433792751
 20
-40.58757229293092
 10
584.9333433792751
 20
-37.48757229293055
 10
595.1333433792749
 20
-37.48757229293055
 10
595.1333433792749
 20
-40.58757229293092
 10
604.9333433792751
 20
-40.58757229293092
 10
604.9333433792751
 20
-37.48757229293055
 10
615.1333433792749
 20
-37.48757229293055
 10
615.1333433792749
 20
-40.58757229293092
 10
624.9333433792751
 20
-40.58757229293092
 10
624.9333433792751
 20
-37.48757229293055
 10
635.1333433792749
 20
-37.48757229293055
 10
635.1333433792749
 20
-40.58757229293092
 10
644.9333433792751
 20
-40.58757229293092
 10
644.9333433792751
 20
-37.48757229293055
 10
655.1333433792751
 20
-37.48757229293055
 10
655.1333433792751
 20
-40.58757229293092
 10
664.9333433792751
 20
-40.58757229293092
 10
664.9333433792751
 20
-37.48757229293055
 10
675.1333433792749
 20
-37.48757229293055
 10
675.1333433792749
 20
-40.58757229293092
 10
684.9333433792751
 20
-40.58757229293092
 10
684.9333433792751
 20
-37.48757229293055
 10
695.1333433792749
 20
-37.48757229293055
 10
695.1333433792749
 20
-40.58757229293092
 10
703.9833433792718
 20
-40.58757229293092
  0
LWPOLYLINE
  5
404
330
1F
100
AcDbEntity
  8
exterior cut
100
AcDbPolyline
 90
       10
 70
     0
 43
0.0
 10
703.9833433792718
 20
-40.58757229293092
 10
703.9833433792718
 20
-47.3875722929302
 10
707.1833433792715
 20
-47.3875722929302
 10
707.1833433792715
 20
-57.58757229293093
 10
703.9833433792718
 20
-57.58757229293093
 10
703.9833433792718
 20
-67.3875722929302
 10
707.1833433792715
 20
-67.3875722929302
 10
707.1833433792715
 20
-77.58757229293093
 10
703.9833433792718
 20
-77.58757229293093
 10
703.9833433792718
 20
-89.48757229293056
  0
LWPOLYLINE
  5
405
330
1F
100
AcDbEntity
  8
exterior cut
100
AcDbPolyline
 90
       20
 70
     0
 43
0.0
 10
176.0833433792736
 20
-92.58757229293093
 10
176.0833433792736
 20
-92.58757229293093
 10
176.0833433792736
 20
-92.58757229293093
 10
176.0833433792736
 20
-77.58757229293093
 10
172.8833433792742
 20
-77.58757229293093
 10
172.8833433792742
 20
-67.58757229293184
 10
176.0833433792736
 20
-67.58757229293184
 10
176.0833433792736
 20
-57.58757229293093
 10
172.8833433792742
 20
-57.58757229293093
 10
172.8833433792742
 20
-47.58757229293183
 10
176.0833433792736
 20
-47.58757229293183
 10
176.0833433792736
 20
-37.48757229293055
 10
176.0833433792736
 20
-47.58757229293183
 10
172.8833433792742
 20
-47.58757229293183
 10
172.8833433792742
 20
-57.58757229293093
 10
176.0833433792736
 20
-57.58757229293093
 10
176.0833433792736
 20
-67.58757229293184
 10
172.8833433792742
 20
-67.58757229293184
 10
172.8833433792742
 20
-77.58757229293093
 10
175.8833433792742
 20
-77.58757229293093
  0
LWPOLYLINE
  5
406
330
1F
100
AcDbEntity
  8
engrave
100
AcDbPolyline
 90
        2
 70
     0
 43
0.0
 10
172.8833433792742
 20
-50.08757229293093
 10
707.1833433792715
 20
-50.08757229293093
  0
LWPOLYLINE
  5
407
330
1F
100
AcDbEntity
  8
engrave
100
AcDbPolyline
 90
        2
 70
     0
 43
0.0
 10
175.8833433792742
 20
-80.08757229293093
 10
703.9833433792718
 20
-80.08757229293093
  0
LWPOLYLINE
  5
408
330
1F
100
AcDbEntity
  8
interior cut 3
100
AcDbPolyline
 90
        4
 70
     1
 43
0.0
 10
267.9333433792749
 20
-43.08757229293092
 10
267.9333433792749
 20
-50.08757229293093
 10
178.9565969232208
 20
-50.08757229293093
 10
178.9565969232208
 20
-43.08757229293092
  0
LWPOLYLINE
  5
409
330
1F
100
AcDbEntity
  8
exterior cut
100
AcDbPolyline
 90
      105
 70
     0
 43
0.0
 10
176.0833433792736
 20
-92.58757229293093
 10
184.9333433792753
 20
-92.58757229293093
 10
195.1333433792751
 20
-92.58757229293093
 10
195.1333433792751
 20
-89.48757229293056
 10
204.9333433792754
 20
-89.48757229293056
 10
204.9333433792754
 20
-92.58757229293093
 10
215.1333433792752
 20
-92.58757229293093
 10
215.1333433792752
 20
-89.48757229293056
 10
224.9333433792754
 20
-89.48757229293056
 10
224.9333433792754
 20
-92.58757229293093
 10
235.1333433792752
 20
-92.58757229293093
 10
235.1333433792752
 20
-89.48757229293056
 10
244.9333433792753
 20
-89.48757229293056
 10
244.9333433792753
 20
-92.58757229293093
 10
255.1333433792752
 20
-92.58757229293093
 10
255.1333433792752
 20
-89.48757229293056
 10
264.9333433792754
 20
-89.48757229293056
 10
264.9333433792754
 20
-92.58757229293093
 10
275.1333433792749
 20
-92.58757229293093
 10
275.1333433792749
 20
-89.48757229293056
 10
284.9333433792754
 20
-89.48757229293056
 10
284.9333433792754
 20
-92.58757229293093
 10
295.133343379275
 20
-92.58757229293093
 10
295.133343379275
 20
-89.48757229293056
 10
304.9333433792754
 20
-89.48757229293056
 10
304.9333433792754
 20
-92.58757229293093
 10
315.1333433792749
 20
-92.58757229293093
 10
315.1333433792749
 20
-89.48757229293056
 10
324.9333433792751
 20
-89.48757229293056
 10
324.9333433792751
 20
-92.58757229293093
 10
335.133343379275
 20
-92.58757229293093
 10
335.133343379275
 20
-89.48757229293056
 10
344.9333433792753
 20
-89.48757229293056
 10
344.9333433792753
 20
-92.58757229293093
 10
355.1333433792749
 20
-92.58757229293093
 10
355.1333433792749
 20
-89.48757229293056
 10
364.9333433792754
 20
-89.48757229293056
 10
364.9333433792754
 20
-92.58757229293093
 10
375.1333433792752
 20
-92.58757229293093
 10
375.1333433792752
 20
-89.48757229293056
 10
384.9333433792754
 20
-89.48757229293056
 10
384.9333433792754
 20
-92.58757229293093
 10
395.133343379275
 20
-92.58757229293093
 10
395.133343379275
 20
-89.48757229293056
 10
404.9333433792753
 20
-89.48757229293056
 10
404.9333433792753
 20
-92.58757229293093
 10
415.1333433792752
 20
-92.58757229293093
 10
415.1333433792752
 20
-89.48757229293056
 10
424.9333433792753
 20
-89.48757229293056
 10
424.9333433792753
 20
-92.58757229293093
 10
435.1333433792749
 20
-92.58757229293093
 10
435.1333433792749
 20
-89.48757229293056
 10
444.9333433792753
 20
-89.48757229293056
 10
444.9333433792753
 20
-92.58757229293093
 10
455.1333433792751
 20
-92.58757229293093
 10
455.1333433792751
 20
-89.48757229293056
 10
464.9333433792751
 20
-89.48757229293056
 10
464.9333433792751
 20
-92.58757229293093
 10
475.1333433792751
 20
-92.58757229293093
 10
475.1333433792751
 20
-89.48757229293056
 10
484.9333433792751
 20
-89.48757229293056
 10
484.9333433792751
 20
-92.58757229293093
 10
495.1333433792749
 20
-92.58757229293093
 10
495.1333433792749
 20
-89.48757229293056
 10
504.9333433792753
 20
-89.48757229293056
 10
504.9333433792753
 20
-92.58757229293093
 10
515.1333433792752
 20
-92.58757229293093
 10
515.1333433792752
 20
-89.48757229293056
 10
524.9333433792751
 20
-89.48757229293056
 10
524.9333433792751
 20
-92.58757229293093
 10
535.1333433792749
 20
-92.58757229293093
 10
535.1333433792749
 20
-89.48757229293056
 10
544.9333433792751
 20
-89.48757229293056
 10
544.9333433792751
 20
-92.58757229293093
 10
555.1333433792751
 20
-92.58757229293093
 10
555.1333433792751
 20
-89.48757229293056
 10
564.9333433792751
 20
-89.48757229293056
 10
564.9333433792751
 20
-92.58757229293093
 10
575.1333433792749
 20
-92.58757229293093
 10
575.1333433792749
 20
-89.48757229293056
 10
584.9333433792751
 20
-89.48757229293056
 10
584.9333433792751
 20
-92.58757229293093
 10
595.1333433792749
 20
-92.58757229293093
 10
595.1333433792749
 20
-89.48757229293056
 10
604.9333433792751
 20
-89.48757229293056
 10
604.9333433792751
 20
-92.58757229293093
 10
615.1333433792749
 20
-92.58757229293093
 10
615.1333433792749
 20
-89.48757229293056
 10
624.9333433792751
 20
-89.48757229293056
 10
624.9333433792751
 20
-92.58757229293093
 10
635.1333433792749
 20
-92.58757229293093
 10
635.1333433792749
 20
-89.48757229293056
 10
644.9333433792751
 20
-89.48757229293056
 10
644.9333433792751
 20
-92.58757229293093
 10
655.1333433792751
 20
-92.58757229293093
 10
655.1333433792751
 20
-89.48757229293056
 10
664.9333433792751
 20
-89.48757229293056
 10
664.9333433792751
 20
-92.58757229293093
 10
675.1333433792749
 20
-92.58757229293093
 10
675.1333433792749
 20
-89.48757229293056
 10
684.9333433792751
 20
-89.48757229293056
 10
684.9333433792751
 20
-92.58757229293093
 10
695.1333433792749
 20
-92.58757229293093
 10
695.1333433792749
 20
-89.48757229293056
 10
703.9833433792718
 20
-89.48757229293056
  0
LWPOLYLINE
  5
40A
330
1F
100
AcDbEntity
  8
interior cut 3
100
AcDbPolyline
 90
        4
 70
     1
 43
0.0
 10
612.133343379271
 20
-43.08757229293092
 10
612.133343379271
 20
-50.08757229293093
 10
701.1100898353249
 20
-50.08757229293093
 10
701.1100898353249
 20
-43.08757229293092
  0
LWPOLYLINE
  5
40B
330
1F
100
AcDbEntity
  8
interior cut 3
100
AcDbPolyline
 90
        4
 70
     1
 43
0.0
 10
267.9333433792749
 20
-80.08757229293093
 10
267.9333433792749
 20
-87.08757229293093
 10
178.9565969232208
 20
-87.08757229293093
 10
178.9565969232208
 20
-80.08757229293093
  0
LWPOLYLINE
  5
40C
330
1F
100
AcDbEntity
  8
interior cut 3
100
AcDbPolyline
 90
        4
 70
     1
 43
0.0
 10
612.1333433792708
 20
-80.08757229293093
 10
612.1333433792708
 20
-87.08757229293093
 10
701.1100898353249
 20
-87.08757229293093
 10
701.1100898353249
 20
-80.08757229293093
  0
LWPOLYLINE
  5
414
330
1F
100
AcDbEntity
  8
exterior cut
100
AcDbPolyline
 90
      114
 70
     0
 43
0.0
 10
905.3786739979241
 20
111.6077583257161
 10
905.3786739979241
 20
123.5577583257173
 10
908.3786739979242
 20
123.5577583257173
 10
908.3786739979242
 20
133.5577583257177
 10
905.3786739979241
 20
133.5577583257177
 10
905.3786739979241
 20
143.5577583257173
 10
908.3786739979242
 20
143.5577583257173
 10
908.3786739979242
 20
153.5577583257177
 10
908.3786739979242
 20
153.5577583257177
 10
908.3786739979242
 20
153.5577583257177
 10
905.3786739979241
 20
153.5577583257177
 10
905.3786739979241
 20
163.5577583257177
 10
908.3786739979242
 20
163.5577583257177
 10
908.3786739979242
 20
173.5577583257177
 10
905.3786739979241
 20
173.5577583257177
 10
905.3786739979241
 20
183.5577583257177
 10
908.3786739979242
 20
183.5577583257177
 10
908.3786739979242
 20
193.5577583257177
 10
908.3786739979242
 20
193.5577583257177
 10
905.3786739979241
 20
193.5577583257177
 10
905.3786739979241
 20
203.5577583257178
 10
908.3786739979242
 20
203.5577583257178
 10
908.3786739979242
 20
213.5577583257178
 10
905.3786739979241
 20
213.5577583257178
 10
905.3786739979241
 20
223.5577583257178
 10
908.3786739979242
 20
223.5577583257178
 10
908.3786739979242
 20
233.5577583257178
 10
905.3786739979241
 20
233.5577583257178
 10
905.3786739979241
 20
243.5577583257177
 10
908.3786739979242
 20
243.5577583257177
 10
908.3786739979242
 20
253.5577583257178
 10
905.3786739979241
 20
253.5577583257178
 10
905.3786739979241
 20
263.5577583257178
 10
908.3786739979242
 20
263.5577583257178
 10
908.3786739979242
 20
273.5577583257178
 10
905.3786739979241
 20
273.5577583257178
 10
905.3786739979241
 20
283.5577583257178
 10
908.3786739979242
 20
283.5577583257178
 10
908.3786739979242
 20
293.5577583257177
 10
908.3786739979242
 20
293.5577583257177
 10
905.3786739979241
 20
293.5577583257177
 10
905.3786739979241
 20
303.5577583257178
 10
908.3786739979242
 20
303.5577583257178
 10
908.3786739979242
 20
313.5577583257178
 10
905.3786739979241
 20
313.5577583257178
 10
905.3786739979241
 20
323.5577583257178
 10
908.3786739979242
 20
323.5577583257178
 10
908.3786739979242
 20
333.5577583257178
 10
905.3786739979241
 20
333.5577583257178
 10
905.3786739979241
 20
343.5577583257178
 10
905.3786739979241
 20
343.5577583257178
 10
908.3786739979242
 20
343.5577583257178
 10
908.3786739979242
 20
353.5577583257178
 10
905.3786739979241
 20
353.5577583257178
 10
905.3786739979241
 20
363.5577583257178
 10
908.3786739979242
 20
363.5577583257178
 10
908.3786739979242
 20
373.5577583257178
 10
905.3786739979241
 20
373.5577583257178
 10
905.3786739979241
 20
383.5577583257178
 10
908.3786739979242
 20
383.5577583257178
 10
908.3786739979242
 20
393.5577583257178
 10
905.3786739979241
 20
393.5577583257178
 10
905.3786739979241
 20
403.5577583257177
 10
908.3786739979242
 20
403.5577583257177
 10
908.3786739979242
 20
413.5577583257178
 10
905.3786739979241
 20
413.5577583257178
 10
905.3786739979241
 20
413.5577583257178
 10
905.3786739979241
 20
423.5577583257177
 10
908.3786739979242
 20
423.5577583257177
 10
908.3786739979242
 20
433.5577583257177
 10
905.3786739979241
 20
433.5577583257177
 10
905.3786739979241
 20
443.5577583257177
 10
908.3786739979242
 20
443.5577583257177
 10
908.3786739979242
 20
453.5577583257177
 10
905.3786739979241
 20
453.5577583257177
 10
905.3786739979241
 20
463.5577583257178
 10
908.3786739979242
 20
463.5577583257178
 10
908.3786739979242
 20
473.5577583257177
 10
905.3786739979241
 20
473.5577583257177
 10
905.3786739979241
 20
483.5577583257177
 10
908.3786739979242
 20
483.5577583257177
 10
908.3786739979242
 20
493.5577583257177
 10
905.3786739979241
 20
493.5577583257177
 10
905.3786739979241
 20
503.5577583257177
 10
908.3786739979242
 20
503.5577583257177
 10
908.3786739979242
 20
513.5577583257172
 10
905.3786739979241
 20
513.5577583257172
 10
905.3786739979241
 20
523.5577583257176
 10
908.3786739979242
 20
523.5577583257176
 10
908.3786739979242
 20
533.5577583257177
 10
908.3786739979242
 20
533.5577583257177
 10
905.3786739979241
 20
533.5577583257177
 10
905.3786739979241
 20
543.5577583257177
 10
908.3786739979242
 20
543.5577583257177
 10
908.3786739979242
 20
553.5577583257177
 10
905.3786739979241
 20
553.5577583257177
 10
905.3786739979241
 20
563.4577583257173
 10
905.3786739979241
 20
563.5577583257172
 10
908.3786739979242
 20
563.5577583257172
 10
908.3786739979242
 20
573.5577583257176
 10
905.3786739979241
 20
573.5577583257176
 10
905.3786739979241
 20
583.5577583257177
 10
908.3786739979242
 20
583.5577583257177
 10
908.3786739979242
 20
593.5577583257177
 10
905.3786739979241
 20
593.5577583257177
 10
905.3786739979241
 20
603.5577583257177
 10
908.3786739979242
 20
603.5577583257177
 10
908.3786739979242
 20
613.5577583257172
 10
905.3786739979241
 20
613.5577583257172
 10
905.3786739979241
 20
623.5577583257176
 10
908.3786739979242
 20
623.5577583257176
 10
908.3786739979242
 20
633.5577583257177
 10
905.3786739979241
 20
633.5577583257177
 10
905.3786739979241
 20
645.8077583257191
  0
LWPOLYLINE
  5
415
330
1F
100
AcDbEntity
  8
exterior cut
100
AcDbPolyline
 90
       11
 70
     0
 43
0.0
 10
905.3786739979241
 20
645.8077583257191
 10
893.1786739979234
 20
645.8077583257191
 10
893.1786739979234
 20
642.6077583257188
 10
883.3786739979242
 20
642.6077583257188
 10
883.3786739979242
 20
645.8077583257191
 10
873.1786739979234
 20
645.8077583257191
 10
873.1786739979234
 20
642.6077583257188
 10
863.3786739979241
 20
642.6077583257188
 10
863.3786739979241
 20
645.8077583257191
 10
856.1786739979234
 20
645.8077583257191
 10
856.1786739979234
 20
645.8077583257191
  0
LWPOLYLINE
  5
416
330
1F
100
AcDbEntity
  8
exterior cut
100
AcDbPolyline
 90
       11
 70
     0
 43
0.0
 10
856.1786739979231
 20
111.6077583257161
 10
856.1786739979231
 20
111.6077583257161
 10
863.3786739979239
 20
111.6077583257161
 10
863.3786739979239
 20
114.8077583257159
 10
873.1786739979231
 20
114.8077583257159
 10
873.1786739979231
 20
111.6077583257161
 10
883.3786739979242
 20
111.6077583257161
 10
883.3786739979242
 20
114.8077583257159
 10
893.1786739979234
 20
114.8077583257159
 10
893.1786739979234
 20
111.6077583257161
 10
905.3786739979241
 20
111.6077583257161
  0
LWPOLYLINE
  5
417
330
1F
100
AcDbEntity
  8
exterior cut
100
AcDbPolyline
 90
      114
 70
     0
 43
0.0
 10
856.1786739979231
 20
111.6077583257161
 10
856.1786739979231
 20
123.5577583257173
 10
853.1786739979231
 20
123.5577583257173
 10
853.1786739979233
 20
133.5577583257173
 10
856.1786739979234
 20
133.5577583257173
 10
856.1786739979234
 20
143.5577583257173
 10
853.1786739979233
 20
143.5577583257173
 10
853.1786739979233
 20
153.5577583257173
 10
853.1786739979233
 20
153.5577583257173
 10
853.1786739979233
 20
153.5577583257173
 10
856.1786739979234
 20
153.5577583257173
 10
856.1786739979234
 20
163.5577583257173
 10
853.1786739979233
 20
163.5577583257173
 10
853.1786739979233
 20
173.5577583257173
 10
856.1786739979234
 20
173.5577583257173
 10
856.1786739979234
 20
183.5577583257173
 10
853.1786739979233
 20
183.5577583257173
 10
853.1786739979233
 20
193.5577583257173
 10
853.1786739979233
 20
193.5577583257173
 10
856.1786739979234
 20
193.5577583257173
 10
856.1786739979234
 20
203.5577583257173
 10
853.1786739979233
 20
203.5577583257173
 10
853.1786739979233
 20
213.5577583257173
 10
856.1786739979234
 20
213.5577583257173
 10
856.1786739979234
 20
223.5577583257173
 10
853.1786739979233
 20
223.5577583257173
 10
853.1786739979233
 20
233.5577583257173
 10
856.1786739979234
 20
233.5577583257173
 10
856.1786739979234
 20
243.5577583257173
 10
853.1786739979233
 20
243.5577583257173
 10
853.1786739979233
 20
253.5577583257173
 10
856.1786739979234
 20
253.5577583257173
 10
856.1786739979234
 20
263.5577583257173
 10
853.1786739979233
 20
263.5577583257173
 10
853.1786739979233
 20
273.5577583257173
 10
856.1786739979234
 20
273.5577583257173
 10
856.1786739979234
 20
283.5577583257173
 10
853.1786739979233
 20
283.5577583257173
 10
853.1786739979233
 20
293.5577583257173
 10
853.1786739979233
 20
293.5577583257173
 10
856.1786739979234
 20
293.5577583257173
 10
856.1786739979234
 20
303.5577583257173
 10
853.1786739979233
 20
303.5577583257173
 10
853.1786739979233
 20
313.5577583257173
 10
856.1786739979234
 20
313.5577583257173
 10
856.1786739979234
 20
323.5577583257173
 10
853.1786739979233
 20
323.5577583257173
 10
853.1786739979233
 20
333.5577583257173
 10
856.1786739979234
 20
333.5577583257173
 10
856.1786739979234
 20
343.5577583257173
 10
856.1786739979234
 20
343.5577583257173
 10
853.1786739979233
 20
343.5577583257173
 10
853.1786739979233
 20
353.5577583257173
 10
856.1786739979234
 20
353.5577583257173
 10
856.1786739979234
 20
363.5577583257173
 10
853.1786739979233
 20
363.5577583257173
 10
853.1786739979233
 20
373.5577583257173
 10
856.1786739979234
 20
373.5577583257173
 10
856.1786739979234
 20
383.5577583257173
 10
853.1786739979233
 20
383.5577583257173
 10
853.1786739979233
 20
393.5577583257173
 10
856.1786739979234
 20
393.5577583257173
 10
856.1786739979234
 20
403.5577583257173
 10
853.1786739979233
 20
403.5577583257173
 10
853.1786739979233
 20
413.5577583257172
 10
856.1786739979234
 20
413.5577583257172
 10
856.1786739979234
 20
413.5577583257172
 10
856.1786739979234
 20
423.5577583257173
 10
853.1786739979233
 20
423.5577583257173
 10
853.1786739979233
 20
433.5577583257173
 10
856.1786739979234
 20
433.5577583257173
 10
856.1786739979234
 20
443.5577583257173
 10
853.1786739979233
 20
443.5577583257173
 10
853.1786739979233
 20
453.5577583257173
 10
856.1786739979234
 20
453.5577583257173
 10
856.1786739979234
 20
463.5577583257172
 10
853.1786739979233
 20
463.5577583257172
 10
853.1786739979233
 20
473.5577583257173
 10
856.1786739979234
 20
473.5577583257173
 10
856.1786739979234
 20
483.5577583257173
 10
853.1786739979233
 20
483.5577583257173
 10
853.1786739979233
 20
493.5577583257173
 10
856.1786739979234
 20
493.5577583257173
 10
856.1786739979234
 20
503.5577583257173
 10
853.1786739979233
 20
503.5577583257173
 10
853.1786739979233
 20
513.5577583257172
 10
856.1786739979234
 20
513.5577583257172
 10
856.1786739979234
 20
523.5577583257172
 10
853.1786739979233
 20
523.5577583257172
 10
853.1786739979233
 20
533.5577583257173
 10
853.1786739979233
 20
533.5577583257173
 10
856.1786739979234
 20
533.5577583257173
 10
856.1786739979234
 20
543.5577583257172
 10
853.1786739979233
 20
543.5577583257172
 10
853.1786739979233
 20
553.5577583257172
 10
856.1786739979234
 20
553.5577583257172
 10
856.1786739979234
 20
563.4577583257173
 10
856.1786739979234
 20
563.5577583257172
 10
853.1786739979233
 20
563.5577583257172
 10
853.1786739979233
 20
573.5577583257172
 10
856.1786739979234
 20
573.5577583257172
 10
856.1786739979234
 20
583.5577583257173
 10
853.1786739979233
 20
583.5577583257173
 10
853.1786739979233
 20
593.5577583257172
 10
856.1786739979234
 20
593.5577583257172
 10
856.1786739979234
 20
603.5577583257172
 10
853.1786739979233
 20
603.5577583257172
 10
853.1786739979233
 20
613.5577583257172
 10
856.1786739979234
 20
613.5577583257172
 10
856.1786739979234
 20
623.5577583257172
 10
853.1786739979233
 20
623.5577583257172
 10
853.1786739979233
 20
633.5577583257173
 10
856.1786739979234
 20
633.5577583257173
 10
856.1786739979234
 20
645.8077583257185
  0
LWPOLYLINE
  5
418
330
1F
100
AcDbEntity
  8
engrave
100
AcDbPolyline
 90
        2
 70
     0
 43
0.0
 10
895.7786739979219
 20
645.8077583257185
 10
895.7786739979219
 20
111.6077583257161
  0
LWPOLYLINE
  5
419
330
1F
100
AcDbEntity
  8
engrave
100
AcDbPolyline
 90
        2
 70
     0
 43
0.0
 10
865.7786739979218
 20
642.6077583257188
 10
865.7786739979217
 20
114.8077583257159
  0
LWPOLYLINE
  5
41A
330
1F
100
AcDbEntity
  8
interior cut 3
100
AcDbPolyline
 90
        4
 70
     1
 43
0.0
 10
902.7786739979202
 20
548.7870260812501
 10
895.7786739979201
 20
548.7870260812501
 10
895.7786739979201
 20
640.7370260812476
 10
902.7786739979202
 20
640.7370260812476
  0
LWPOLYLINE
  5
41B
330
1F
100
AcDbEntity
  8
interior cut 3
100
AcDbPolyline
 90
        4
 70
     1
 43
0.0
 10
865.7786739979218
 20
548.7870260812501
 10
858.778673997922
 20
548.7870260812501
 10
858.778673997922
 20
640.7370260812476
 10
865.7786739979218
 20
640.7370260812476
  0
LWPOLYLINE
  5
41C
330
1F
100
AcDbEntity
  8
interior cut 3
100
AcDbPolyline
 90
        4
 70
     1
 43
0.0
 10
902.7786739979202
 20
209.81774274385
 10
895.7786739979201
 20
209.81774274385
 10
895.7786739979201
 20
117.8677427438529
 10
902.7786739979202
 20
117.8677427438529
  0
LWPOLYLINE
  5
41D
330
1F
100
AcDbEntity
  8
interior cut 3
100
AcDbPolyline
 90
        4
 70
     1
 43
0.0
 10
865.7786739979218
 20
209.81774274385
 10
858.778673997922
 20
209.81774274385
 10
858.7786739979216
 20
117.8677427438529
 10
865.7786739979217
 20
117.8677427438529
  0
LWPOLYLINE
  5
42A
330
1F
100
AcDbEntity
  8
exterior cut
100
AcDbPolyline
 90
      104
 70
     0
 43
0.0
 10
718.5062823557373
 20
791.503088944365
 10
708.5062823557373
 20
791.503088944365
 10
708.5062823557373
 20
794.6030889443654
 10
698.7062823557371
 20
794.6030889443654
 10
698.7062823557371
 20
791.503088944365
 10
688.5062823557372
 20
791.503088944365
 10
688.5062823557372
 20
794.6030889443654
 10
678.7062823557371
 20
794.6030889443654
 10
678.7062823557371
 20
791.503088944365
 10
668.5062823557373
 20
791.503088944365
 10
668.5062823557373
 20
794.6030889443654
 10
658.7062823557371
 20
794.6030889443654
 10
658.7062823557371
 20
791.503088944365
 10
648.5062823557373
 20
791.503088944365
 10
648.5062823557373
 20
794.6030889443654
 10
638.7062823557371
 20
794.6030889443654
 10
638.7062823557371
 20
791.503088944365
 10
628.5062823557373
 20
791.503088944365
 10
628.5062823557373
 20
794.6030889443654
 10
618.7062823557371
 20
794.6030889443654
 10
618.7062823557371
 20
791.503088944365
 10
608.5062823557373
 20
791.503088944365
 10
608.5062823557373
 20
794.6030889443654
 10
598.7062823557371
 20
794.6030889443654
 10
598.7062823557371
 20
791.503088944365
 10
588.5062823557372
 20
791.503088944365
 10
588.5062823557372
 20
794.6030889443654
 10
578.7062823557371
 20
794.6030889443654
 10
578.7062823557371
 20
791.503088944365
 10
568.5062823557372
 20
791.503088944365
 10
568.5062823557372
 20
794.6030889443654
 10
558.7062823557371
 20
794.6030889443654
 10
558.7062823557371
 20
791.503088944365
 10
548.5062823557373
 20
791.503088944365
 10
548.5062823557373
 20
794.6030889443654
 10
538.706282355737
 20
794.6030889443654
 10
538.706282355737
 20
791.503088944365
 10
528.5062823557373
 20
791.503088944365
 10
528.5062823557373
 20
794.6030889443654
 10
518.7062823557371
 20
794.6030889443654
 10
518.7062823557371
 20
791.503088944365
 10
508.5062823557373
 20
791.503088944365
 10
508.5062823557373
 20
794.6030889443654
 10
498.7062823557371
 20
794.6030889443654
 10
498.7062823557371
 20
791.503088944365
 10
488.5062823557372
 20
791.503088944365
 10
488.5062823557372
 20
794.6030889443654
 10
478.7062823557371
 20
794.6030889443654
 10
478.7062823557371
 20
791.503088944365
 10
468.5062823557372
 20
791.503088944365
 10
468.5062823557372
 20
794.6030889443654
 10
458.7062823557371
 20
794.6030889443654
 10
458.7062823557371
 20
791.503088944365
 10
448.5062823557373
 20
791.503088944365
 10
448.5062823557373
 20
794.6030889443654
 10
438.706282355737
 20
794.6030889443654
 10
438.706282355737
 20
791.503088944365
 10
428.5062823557373
 20
791.503088944365
 10
428.5062823557373
 20
794.6030889443654
 10
418.7062823557371
 20
794.6030889443654
 10
418.7062823557371
 20
791.503088944365
 10
408.5062823557373
 20
791.503088944365
 10
408.5062823557373
 20
794.6030889443654
 10
398.7062823557371
 20
794.6030889443654
 10
398.7062823557371
 20
791.503088944365
 10
388.5062823557373
 20
791.503088944365
 10
388.5062823557373
 20
794.6030889443654
 10
378.7062823557371
 20
794.6030889443654
 10
378.7062823557371
 20
791.503088944365
 10
368.5062823557373
 20
791.503088944365
 10
368.5062823557373
 20
794.6030889443654
 10
358.7062823557371
 20
794.6030889443654
 10
358.7062823557371
 20
791.503088944365
 10
348.5062823557373
 20
791.503088944365
 10
348.5062823557373
 20
794.6030889443654
 10
338.7062823557371
 20
794.6030889443654
 10
338.7062823557371
 20
791.503088944365
 10
328.5062823557373
 20
791.503088944365
 10
328.5062823557373
 20
794.6030889443654
 10
318.7062823557371
 20
794.6030889443654
 10
318.7062823557371
 20
791.503088944365
 10
308.5062823557373
 20
791.503088944365
 10
308.5062823557373
 20
794.6030889443654
 10
298.7062823557371
 20
794.6030889443654
 10
298.7062823557371
 20
791.503088944365
 10
288.5062823557373
 20
791.503088944365
 10
288.5062823557373
 20
794.6030889443654
 10
278.7062823557371
 20
794.6030889443654
 10
278.7062823557371
 20
791.503088944365
 10
268.5062823557373
 20
791.503088944365
 10
268.5062823557373
 20
794.6030889443654
 10
258.7062823557371
 20
794.6030889443654
 10
258.7062823557371
 20
791.503088944365
 10
248.5062823557373
 20
791.503088944365
 10
248.5062823557373
 20
794.6030889443654
 10
238.7062823557371
 20
794.6030889443654
 10
238.7062823557371
 20
791.503088944365
 10
228.5062823557373
 20
791.503088944365
 10
228.5062823557373
 20
794.6030889443654
 10
218.7062823557371
 20
794.6030889443654
 10
218.7062823557371
 20
791.503088944365
 10
208.5062823557373
 20
791.503088944365
 10
208.5062823557373
 20
794.6030889443654
 10
199.6562823557406
 20
794.6030889443654
  0
LWPOLYLINE
  5
42B
330
1F
100
AcDbEntity
  8
exterior cut
100
AcDbPolyline
 90
       10
 70
     0
 43
0.0
 10
199.6562823557406
 20
794.6030889443654
 10
199.6562823557406
 20
801.4030889443645
 10
196.4562823557407
 20
801.4030889443645
 10
196.4562823557407
 20
811.6030889443653
 10
199.6562823557406
 20
811.6030889443653
 10
199.6562823557406
 20
821.4030889443646
 10
196.4562823557407
 20
821.4030889443646
 10
196.4562823557407
 20
831.6030889443652
 10
199.6562823557406
 20
831.6030889443652
 10
199.6562823557406
 20
843.503088944365
  0
LWPOLYLINE
  5
42D
330
1F
100
AcDbEntity
  8
exterior cut
100
AcDbPolyline
 90
       10
 70
     0
 43
0.0
 10
727.5562823557388
 20
843.503088944365
 10
727.5562823557388
 20
831.6030889443652
 10
730.7562823557382
 20
831.6030889443652
 10
730.7562823557382
 20
821.6030889443663
 10
727.5562823557388
 20
821.6030889443663
 10
727.5562823557388
 20
811.6030889443653
 10
730.7562823557382
 20
811.6030889443653
 10
730.7562823557382
 20
801.6030889443662
 10
727.5562823557388
 20
801.6030889443662
 10
727.5562823557388
 20
794.6030889443654
  0
LWPOLYLINE
  5
42E
330
1F
100
AcDbEntity
  8
engrave
100
AcDbPolyline
 90
        2
 70
     0
 43
0.0
 10
730.7562823557382
 20
804.1030889443653
 10
196.4562823557407
 20
804.1030889443653
  0
LWPOLYLINE
  5
42F
330
1F
100
AcDbEntity
  8
engrave
100
AcDbPolyline
 90
        2
 70
     0
 43
0.0
 10
727.7562823557381
 20
834.1030889443652
 10
199.6562823557406
 20
834.1030889443652
  0
LWPOLYLINE
  5
430
330
1F
100
AcDbEntity
  8
interior cut 3
100
AcDbPolyline
 90
        4
 70
     1
 43
0.0
 10
635.7062823557376
 20
797.1030889443653
 10
635.7062823557376
 20
804.1030889443653
 10
724.6830288117917
 20
804.1030889443653
 10
724.6830288117917
 20
797.1030889443653
  0
LWPOLYLINE
  5
431
330
1F
100
AcDbEntity
  8
exterior cut
100
AcDbPolyline
 90
      104
 70
     0
 43
0.0
 10
718.5062823557373
 20
846.6030889443654
 10
708.5062823557373
 20
846.6030889443654
 10
708.5062823557373
 20
843.503088944365
 10
698.7062823557371
 20
843.503088944365
 10
698.7062823557371
 20
846.6030889443654
 10
688.5062823557372
 20
846.6030889443654
 10
688.5062823557372
 20
843.503088944365
 10
678.7062823557371
 20
843.503088944365
 10
678.7062823557371
 20
846.6030889443654
 10
668.5062823557373
 20
846.6030889443654
 10
668.5062823557373
 20
843.503088944365
 10
658.7062823557371
 20
843.503088944365
 10
658.7062823557371
 20
846.6030889443654
 10
648.5062823557373
 20
846.6030889443654
 10
648.5062823557373
 20
843.503088944365
 10
638.7062823557371
 20
843.503088944365
 10
638.7062823557371
 20
846.6030889443654
 10
628.5062823557373
 20
846.6030889443654
 10
628.5062823557373
 20
843.503088944365
 10
618.7062823557371
 20
843.503088944365
 10
618.7062823557371
 20
846.6030889443654
 10
608.5062823557373
 20
846.6030889443654
 10
608.5062823557373
 20
843.503088944365
 10
598.7062823557371
 20
843.503088944365
 10
598.7062823557371
 20
846.6030889443654
 10
588.5062823557372
 20
846.6030889443654
 10
588.5062823557372
 20
843.503088944365
 10
578.7062823557371
 20
843.503088944365
 10
578.7062823557371
 20
846.6030889443654
 10
568.5062823557372
 20
846.6030889443654
 10
568.5062823557372
 20
843.503088944365
 10
558.7062823557371
 20
843.503088944365
 10
558.7062823557371
 20
846.6030889443654
 10
548.5062823557373
 20
846.6030889443654
 10
548.5062823557373
 20
843.503088944365
 10
538.706282355737
 20
843.503088944365
 10
538.706282355737
 20
846.6030889443654
 10
528.5062823557373
 20
846.6030889443654
 10
528.5062823557373
 20
843.503088944365
 10
518.7062823557371
 20
843.503088944365
 10
518.7062823557371
 20
846.6030889443654
 10
508.5062823557373
 20
846.6030889443654
 10
508.5062823557373
 20
843.503088944365
 10
498.7062823557371
 20
843.503088944365
 10
498.7062823557371
 20
846.6030889443654
 10
488.5062823557372
 20
846.6030889443654
 10
488.5062823557372
 20
843.503088944365
 10
478.7062823557371
 20
843.503088944365
 10
478.7062823557371
 20
846.6030889443654
 10
468.5062823557372
 20
846.6030889443654
 10
468.5062823557372
 20
843.503088944365
 10
458.7062823557371
 20
843.503088944365
 10
458.7062823557371
 20
846.6030889443654
 10
448.5062823557373
 20
846.6030889443654
 10
448.5062823557373
 20
843.503088944365
 10
438.706282355737
 20
843.503088944365
 10
438.706282355737
 20
846.6030889443654
 10
428.5062823557373
 20
846.6030889443654
 10
428.5062823557373
 20
843.503088944365
 10
418.7062823557371
 20
843.503088944365
 10
418.7062823557371
 20
846.6030889443654
 10
408.5062823557373
 20
846.6030889443654
 10
408.5062823557373
 20
843.503088944365
 10
398.7062823557371
 20
843.503088944365
 10
398.7062823557371
 20
846.6030889443654
 10
388.5062823557373
 20
846.6030889443654
 10
388.5062823557373
 20
843.503088944365
 10
378.7062823557371
 20
843.503088944365
 10
378.7062823557371
 20
846.6030889443654
 10
368.5062823557373
 20
846.6030889443654
 10
368.5062823557373
 20
843.503088944365
 10
358.7062823557371
 20
843.503088944365
 10
358.7062823557371
 20
846.6030889443654
 10
348.5062823557373
 20
846.6030889443654
 10
348.5062823557373
 20
843.503088944365
 10
338.7062823557371
 20
843.503088944365
 10
338.7062823557371
 20
846.6030889443654
 10
328.5062823557373
 20
846.6030889443654
 10
328.5062823557373
 20
843.503088944365
 10
318.7062823557371
 20
843.503088944365
 10
318.7062823557371
 20
846.6030889443654
 10
308.5062823557373
 20
846.6030889443654
 10
308.5062823557373
 20
843.503088944365
 10
298.7062823557371
 20
843.503088944365
 10
298.7062823557371
 20
846.6030889443654
 10
288.5062823557373
 20
846.6030889443654
 10
288.5062823557373
 20
843.503088944365
 10
278.7062823557371
 20
843.503088944365
 10
278.7062823557371
 20
846.6030889443654
 10
268.5062823557373
 20
846.6030889443654
 10
268.5062823557373
 20
843.503088944365
 10
258.7062823557371
 20
843.503088944365
 10
258.7062823557371
 20
846.6030889443654
 10
248.5062823557373
 20
846.6030889443654
 10
248.5062823557373
 20
843.503088944365
 10
238.7062823557371
 20
843.503088944365
 10
238.7062823557371
 20
846.6030889443654
 10
228.5062823557373
 20
846.6030889443654
 10
228.5062823557373
 20
843.503088944365
 10
218.7062823557371
 20
843.503088944365
 10
218.7062823557371
 20
846.6030889443654
 10
208.5062823557373
 20
846.6030889443654
 10
208.5062823557373
 20
843.503088944365
 10
199.6562823557406
 20
843.503088944365
  0
LWPOLYLINE
  5
432
330
1F
100
AcDbEntity
  8
interior cut 3
100
AcDbPolyline
 90
        4
 70
     1
 43
0.0
 10
291.5062823557414
 20
797.1030889443653
 10
291.5062823557414
 20
804.1030889443653
 10
202.5295358996873
 20
804.1030889443653
 10
202.5295358996873
 20
797.1030889443653
  0
LWPOLYLINE
  5
433
330
1F
100
AcDbEntity
  8
interior cut 3
100
AcDbPolyline
 90
        4
 70
     1
 43
0.0
 10
635.7062823557376
 20
834.1030889443652
 10
635.7062823557376
 20
841.1030889443653
 10
724.6830288117917
 20
841.1030889443653
 10
724.6830288117917
 20
834.1030889443652
  0
LWPOLYLINE
  5
434
330
1F
100
AcDbEntity
  8
interior cut 3
100
AcDbPolyline
 90
        4
 70
     1
 43
0.0
 10
291.5062823557414
 20
834.1030889443652
 10
291.5062823557414
 20
841.1030889443653
 10
202.5295358996873
 20
841.1030889443653
 10
202.5295358996873
 20
834.1030889443652
  0
LWPOLYLINE
  5
435
330
1F
100
AcDbEntity
  8
exterior cut
100
AcDbPolyline
 90
        3
 70
     0
 43
0.0
 10
708.5062823557373
 20
791.503088944365
 10
718.5062823557373
 20
791.503088944365
 10
718.5062823557373
 20
794.6030889443654
  0
LWPOLYLINE
  5
436
330
1F
100
AcDbEntity
  8
exterior cut
100
AcDbPolyline
 90
        2
 70
     0
 43
0.0
 10
718.5062823557373
 20
843.503088944365
 10
718.5062823557373
 20
846.6030889443654
  0
LWPOLYLINE
  5
437
330
1F
100
AcDbEntity
  8
exterior cut
100
AcDbPolyline
 90
        2
 70
     0
 43
0.0
 10
718.5062823557373
 20
794.6030889443654
 10
727.5562823557388
 20
794.6030889443654
  0
LWPOLYLINE
  5
438
330
1F
100
AcDbEntity
  8
exterior cut
100
AcDbPolyline
 90
        2
 70
     0
 43
0.0
 10
718.5062823557373
 20
843.503088944365
 10
727.5562823557388
 20
843.503088944365
  0
LWPOLYLINE
  5
442
330
1F
100
AcDbEntity
  8
exterior cut
100
AcDbPolyline
 90
      114
 70
     0
 43
0.0
 10
-45.31198723937836
 20
111.6077583257161
 10
-45.31198723937836
 20
123.5577583257173
 10
-48.31198723937837
 20
123.5577583257173
 10
-48.31198723937837
 20
133.5577583257177
 10
-45.31198723937836
 20
133.5577583257177
 10
-45.31198723937836
 20
143.5577583257173
 10
-48.31198723937837
 20
143.5577583257173
 10
-48.31198723937837
 20
153.5577583257177
 10
-48.31198723937837
 20
153.5577583257177
 10
-48.31198723937837
 20
153.5577583257177
 10
-45.31198723937836
 20
153.5577583257177
 10
-45.31198723937836
 20
163.5577583257177
 10
-48.31198723937837
 20
163.5577583257177
 10
-48.31198723937837
 20
173.5577583257177
 10
-45.31198723937836
 20
173.5577583257177
 10
-45.31198723937836
 20
183.5577583257177
 10
-48.31198723937837
 20
183.5577583257177
 10
-48.31198723937837
 20
193.5577583257177
 10
-48.31198723937837
 20
193.5577583257177
 10
-45.31198723937836
 20
193.5577583257177
 10
-45.31198723937836
 20
203.5577583257178
 10
-48.31198723937837
 20
203.5577583257178
 10
-48.31198723937837
 20
213.5577583257178
 10
-45.31198723937836
 20
213.5577583257178
 10
-45.31198723937836
 20
223.5577583257178
 10
-48.31198723937837
 20
223.5577583257178
 10
-48.31198723937837
 20
233.5577583257178
 10
-45.31198723937836
 20
233.5577583257178
 10
-45.31198723937836
 20
243.5577583257177
 10
-48.31198723937837
 20
243.5577583257177
 10
-48.31198723937837
 20
253.5577583257178
 10
-45.31198723937836
 20
253.5577583257178
 10
-45.31198723937836
 20
263.5577583257178
 10
-48.31198723937837
 20
263.5577583257178
 10
-48.31198723937837
 20
273.5577583257178
 10
-45.31198723937836
 20
273.5577583257178
 10
-45.31198723937836
 20
283.5577583257178
 10
-48.31198723937837
 20
283.5577583257178
 10
-48.31198723937837
 20
293.5577583257177
 10
-48.31198723937837
 20
293.5577583257177
 10
-45.31198723937836
 20
293.5577583257177
 10
-45.31198723937836
 20
303.5577583257178
 10
-48.31198723937837
 20
303.5577583257178
 10
-48.31198723937837
 20
313.5577583257178
 10
-45.31198723937836
 20
313.5577583257178
 10
-45.31198723937836
 20
323.5577583257178
 10
-48.31198723937837
 20
323.5577583257178
 10
-48.31198723937837
 20
333.5577583257178
 10
-45.31198723937836
 20
333.5577583257178
 10
-45.31198723937836
 20
343.5577583257178
 10
-45.31198723937836
 20
343.5577583257178
 10
-48.31198723937837
 20
343.5577583257178
 10
-48.31198723937837
 20
353.5577583257178
 10
-45.31198723937836
 20
353.5577583257178
 10
-45.31198723937836
 20
363.5577583257178
 10
-48.31198723937837
 20
363.5577583257178
 10
-48.31198723937837
 20
373.5577583257178
 10
-45.31198723937836
 20
373.5577583257178
 10
-45.31198723937836
 20
383.5577583257178
 10
-48.31198723937837
 20
383.5577583257178
 10
-48.31198723937837
 20
393.5577583257178
 10
-45.31198723937836
 20
393.5577583257178
 10
-45.31198723937836
 20
403.5577583257177
 10
-48.31198723937837
 20
403.5577583257177
 10
-48.31198723937837
 20
413.5577583257178
 10
-45.31198723937836
 20
413.5577583257178
 10
-45.31198723937836
 20
413.5577583257178
 10
-45.31198723937836
 20
423.5577583257177
 10
-48.31198723937837
 20
423.5577583257177
 10
-48.31198723937837
 20
433.5577583257177
 10
-45.31198723937836
 20
433.5577583257177
 10
-45.31198723937836
 20
443.5577583257177
 10
-48.31198723937837
 20
443.5577583257177
 10
-48.31198723937837
 20
453.5577583257177
 10
-45.31198723937836
 20
453.5577583257177
 10
-45.31198723937836
 20
463.5577583257178
 10
-48.31198723937837
 20
463.5577583257178
 10
-48.31198723937837
 20
473.5577583257177
 10
-45.31198723937836
 20
473.5577583257177
 10
-45.31198723937836
 20
483.5577583257177
 10
-48.31198723937837
 20
483.5577583257177
 10
-48.31198723937837
 20
493.5577583257177
 10
-45.31198723937836
 20
493.5577583257177
 10
-45.31198723937836
 20
503.5577583257177
 10
-48.31198723937837
 20
503.5577583257177
 10
-48.31198723937837
 20
513.5577583257172
 10
-45.31198723937836
 20
513.5577583257172
 10
-45.31198723937836
 20
523.5577583257176
 10
-48.31198723937837
 20
523.5577583257176
 10
-48.31198723937837
 20
533.5577583257177
 10
-48.31198723937837
 20
533.5577583257177
 10
-45.31198723937836
 20
533.5577583257177
 10
-45.31198723937836
 20
543.5577583257177
 10
-48.31198723937837
 20
543.5577583257177
 10
-48.31198723937837
 20
553.5577583257177
 10
-45.31198723937836
 20
553.5577583257177
 10
-45.31198723937836
 20
563.4577583257173
 10
-45.31198723937836
 20
563.5577583257172
 10
-48.31198723937837
 20
563.5577583257172
 10
-48.31198723937837
 20
573.5577583257176
 10
-45.31198723937836
 20
573.5577583257176
 10
-45.31198723937836
 20
583.5577583257177
 10
-48.31198723937837
 20
583.5577583257177
 10
-48.31198723937837
 20
593.5577583257177
 10
-45.31198723937836
 20
593.5577583257177
 10
-45.31198723937836
 20
603.5577583257177
 10
-48.31198723937837
 20
603.5577583257177
 10
-48.31198723937837
 20
613.5577583257172
 10
-45.31198723937836
 20
613.5577583257172
 10
-45.31198723937836
 20
623.5577583257176
 10
-48.31198723937837
 20
623.5577583257176
 10
-48.31198723937837
 20
633.5577583257177
 10
-45.31198723937836
 20
633.5577583257177
 10
-45.31198723937836
 20
645.8077583257191
  0
LWPOLYLINE
  5
443
330
1F
100
AcDbEntity
  8
exterior cut
100
AcDbPolyline
 90
       11
 70
     0
 43
0.0
 10
-45.31198723937836
 20
645.8077583257191
 10
-33.11198723937764
 20
645.8077583257191
 10
-33.11198723937764
 20
642.6077583257188
 10
-23.31198723937837
 20
642.6077583257188
 10
-23.31198723937837
 20
645.8077583257191
 10
-13.11198723937764
 20
645.8077583257191
 10
-13.11198723937764
 20
642.6077583257188
 10
-3.311987239378368
 20
642.6077583257188
 10
-3.311987239378368
 20
645.8077583257191
 10
3.888012760622359
 20
645.8077583257191
 10
3.888012760622359
 20
645.8077583257191
  0
LWPOLYLINE
  5
444
330
1F
100
AcDbEntity
  8
exterior cut
100
AcDbPolyline
 90
       11
 70
     0
 43
0.0
 10
3.888012760622586
 20
111.6077583257161
 10
3.888012760622586
 20
111.6077583257161
 10
-3.31198723937814
 20
111.6077583257161
 10
-3.31198723937814
 20
114.8077583257159
 10
-13.11198723937741
 20
114.8077583257159
 10
-13.11198723937741
 20
111.6077583257161
 10
-23.31198723937837
 20
111.6077583257161
 10
-23.31198723937837
 20
114.8077583257159
 10
-33.11198723937764
 20
114.8077583257159
 10
-33.11198723937764
 20
111.6077583257161
 10
-45.31198723937836
 20
111.6077583257161
  0
LWPOLYLINE
  5
445
330
1F
100
AcDbEntity
  8
exterior cut
100
AcDbPolyline
 90
      114
 70
     0
 43
0.0
 10
3.888012760622586
 20
111.6077583257161
 10
3.888012760622586
 20
123.5577583257173
 10
6.888012760622586
 20
123.5577583257173
 10
6.888012760622359
 20
133.5577583257173
 10
3.888012760622359
 20
133.5577583257173
 10
3.888012760622359
 20
143.5577583257173
 10
6.888012760622359
 20
143.5577583257173
 10
6.888012760622359
 20
153.5577583257173
 10
6.888012760622359
 20
153.5577583257173
 10
6.888012760622359
 20
153.5577583257173
 10
3.888012760622359
 20
153.5577583257173
 10
3.888012760622359
 20
163.5577583257173
 10
6.888012760622359
 20
163.5577583257173
 10
6.888012760622359
 20
173.5577583257173
 10
3.888012760622359
 20
173.5577583257173
 10
3.888012760622359
 20
183.5577583257173
 10
6.888012760622359
 20
183.5577583257173
 10
6.888012760622359
 20
193.5577583257173
 10
6.888012760622359
 20
193.5577583257173
 10
3.888012760622359
 20
193.5577583257173
 10
3.888012760622359
 20
203.5577583257173
 10
6.888012760622359
 20
203.5577583257173
 10
6.888012760622359
 20
213.5577583257173
 10
3.888012760622359
 20
213.5577583257173
 10
3.888012760622359
 20
223.5577583257173
 10
6.888012760622359
 20
223.5577583257173
 10
6.888012760622359
 20
233.5577583257173
 10
3.888012760622359
 20
233.5577583257173
 10
3.888012760622359
 20
243.5577583257173
 10
6.888012760622359
 20
243.5577583257173
 10
6.888012760622359
 20
253.5577583257173
 10
3.888012760622359
 20
253.5577583257173
 10
3.888012760622359
 20
263.5577583257173
 10
6.888012760622359
 20
263.5577583257173
 10
6.888012760622359
 20
273.5577583257173
 10
3.888012760622359
 20
273.5577583257173
 10
3.888012760622359
 20
283.5577583257173
 10
6.888012760622359
 20
283.5577583257173
 10
6.888012760622359
 20
293.5577583257173
 10
6.888012760622359
 20
293.5577583257173
 10
3.888012760622359
 20
293.5577583257173
 10
3.888012760622359
 20
303.5577583257173
 10
6.888012760622359
 20
303.5577583257173
 10
6.888012760622359
 20
313.5577583257173
 10
3.888012760622359
 20
313.5577583257173
 10
3.888012760622359
 20
323.5577583257173
 10
6.888012760622359
 20
323.5577583257173
 10
6.888012760622359
 20
333.5577583257173
 10
3.888012760622359
 20
333.5577583257173
 10
3.888012760622359
 20
343.5577583257173
 10
3.888012760622359
 20
343.5577583257173
 10
6.888012760622359
 20
343.5577583257173
 10
6.888012760622359
 20
353.5577583257173
 10
3.888012760622359
 20
353.5577583257173
 10
3.888012760622359
 20
363.5577583257173
 10
6.888012760622359
 20
363.5577583257173
 10
6.888012760622359
 20
373.5577583257173
 10
3.888012760622359
 20
373.5577583257173
 10
3.888012760622359
 20
383.5577583257173
 10
6.888012760622359
 20
383.5577583257173
 10
6.888012760622359
 20
393.5577583257173
 10
3.888012760622359
 20
393.5577583257173
 10
3.888012760622359
 20
403.5577583257173
 10
6.888012760622359
 20
403.5577583257173
 10
6.888012760622359
 20
413.5577583257172
 10
3.888012760622359
 20
413.5577583257172
 10
3.888012760622359
 20
413.5577583257172
 10
3.888012760622359
 20
423.5577583257173
 10
6.888012760622359
 20
423.5577583257173
 10
6.888012760622359
 20
433.5577583257173
 10
3.888012760622359
 20
433.5577583257173
 10
3.888012760622359
 20
443.5577583257173
 10
6.888012760622359
 20
443.5577583257173
 10
6.888012760622359
 20
453.5577583257173
 10
3.888012760622359
 20
453.5577583257173
 10
3.888012760622359
 20
463.5577583257172
 10
6.888012760622359
 20
463.5577583257172
 10
6.888012760622359
 20
473.5577583257173
 10
3.888012760622359
 20
473.5577583257173
 10
3.888012760622359
 20
483.5577583257173
 10
6.888012760622359
 20
483.5577583257173
 10
6.888012760622359
 20
493.5577583257173
 10
3.888012760622359
 20
493.5577583257173
 10
3.888012760622359
 20
503.5577583257173
 10
6.888012760622359
 20
503.5577583257173
 10
6.888012760622359
 20
513.5577583257172
 10
3.888012760622359
 20
513.5577583257172
 10
3.888012760622359
 20
523.5577583257172
 10
6.888012760622359
 20
523.5577583257172
 10
6.888012760622359
 20
533.5577583257173
 10
6.888012760622359
 20
533.5577583257173
 10
3.888012760622359
 20
533.5577583257173
 10
3.888012760622359
 20
543.5577583257172
 10
6.888012760622359
 20
543.5577583257172
 10
6.888012760622359
 20
553.5577583257172
 10
3.888012760622359
 20
553.5577583257172
 10
3.888012760622359
 20
563.4577583257173
 10
3.888012760622359
 20
563.5577583257172
 10
6.888012760622359
 20
563.5577583257172
 10
6.888012760622359
 20
573.5577583257172
 10
3.888012760622359
 20
573.5577583257172
 10
3.888012760622359
 20
583.5577583257173
 10
6.888012760622359
 20
583.5577583257173
 10
6.888012760622359
 20
593.5577583257172
 10
3.888012760622359
 20
593.5577583257172
 10
3.888012760622359
 20
603.5577583257172
 10
6.888012760622359
 20
603.5577583257172
 10
6.888012760622359
 20
613.5577583257172
 10
3.888012760622359
 20
613.5577583257172
 10
3.888012760622359
 20
623.5577583257172
 10
6.888012760622359
 20
623.5577583257172
 10
6.888012760622359
 20
633.5577583257173
 10
3.888012760622359
 20
633.5577583257173
 10
3.888012760622359
 20
645.8077583257185
  0
LWPOLYLINE
  5
446
330
1F
100
AcDbEntity
  8
engrave
100
AcDbPolyline
 90
        2
 70
     0
 43
0.0
 10
-35.71198723937619
 20
645.8077583257185
 10
-35.71198723937619
 20
111.6077583257161
  0
LWPOLYLINE
  5
447
330
1F
100
AcDbEntity
  8
engrave
100
AcDbPolyline
 90
        2
 70
     0
 43
0.0
 10
-5.711987239376185
 20
642.6077583257188
 10
-5.711987239375957
 20
114.8077583257159
  0
LWPOLYLINE
  5
448
330
1F
100
AcDbEntity
  8
interior cut 3
100
AcDbPolyline
 90
        4
 70
     1
 43
0.0
 10
-42.71198723937437
 20
548.7870260812501
 10
-35.71198723937437
 20
548.7870260812501
 10
-35.71198723937437
 20
640.7370260812476
 10
-42.71198723937437
 20
640.7370260812476
  0
LWPOLYLINE
  5
449
330
1F
100
AcDbEntity
  8
interior cut 3
100
AcDbPolyline
 90
        4
 70
     1
 43
0.0
 10
-5.711987239376185
 20
548.7870260812501
 10
1.288012760623814
 20
548.7870260812501
 10
1.288012760623814
 20
640.7370260812476
 10
-5.711987239376185
 20
640.7370260812476
  0
LWPOLYLINE
  5
44A
330
1F
100
AcDbEntity
  8
interior cut 3
100
AcDbPolyline
 90
        4
 70
     1
 43
0.0
 10
-42.71198723937437
 20
209.81774274385
 10
-35.71198723937437
 20
209.81774274385
 10
-35.71198723937437
 20
117.8677427438529
 10
-42.71198723937437
 20
117.8677427438529
  0
LWPOLYLINE
  5
44B
330
1F
100
AcDbEntity
  8
interior cut 3
100
AcDbPolyline
 90
        4
 70
     1
 43
0.0
 10
-5.711987239376185
 20
209.81774274385
 10
1.288012760623814
 20
209.81774274385
 10
1.288012760624042
 20
117.8677427438529
 10
-5.711987239375957
 20
117.8677427438529
  0
LWPOLYLINE
  5
45B
330
1F
100
AcDbEntity
  8
exterior cut
100
AcDbPolyline
 90
      316
 70
     1
 43
0.0
 10
812.133343379275
 20
888.8210296498218
 10
805.133343379275
 20
888.8210296498218
 10
805.133343379275
 20
885.9210296498213
 10
795.1333433792751
 20
885.9210296498213
 10
795.1333433792751
 20
888.8210296498218
 10
785.1333433792748
 20
888.8210296498218
 10
785.1333433792748
 20
885.9210296498213
 10
775.1333433792748
 20
885.9210296498213
 10
775.1333433792748
 20
888.8210296498218
 10
765.1333433792748
 20
888.8210296498218
 10
765.133343379275
 20
885.9210296498213
 10
755.1333433792748
 20
885.9210296498213
 10
755.1333433792748
 20
888.8210296498218
 10
745.1333433792748
 20
888.8210296498218
 10
745.1333433792748
 20
885.9210296498213
 10
735.1333433792748
 20
885.9210296498213
 10
735.1333433792748
 20
888.8210296498218
 10
725.1333433792748
 20
888.8210296498218
 10
725.1333433792748
 20
885.9210296498213
 10
715.133343379275
 20
885.9210296498213
 10
715.133343379275
 20
888.8210296498218
 10
705.133343379275
 20
888.8210296498218
 10
705.133343379275
 20
885.9210296498213
 10
695.1333433792751
 20
885.9210296498213
 10
695.1333433792751
 20
888.8210296498218
 10
685.1333433792748
 20
888.8210296498218
 10
685.1333433792748
 20
885.9210296498213
 10
675.1333433792748
 20
885.9210296498213
 10
675.1333433792748
 20
888.8210296498218
 10
665.1333433792748
 20
888.8210296498218
 10
665.133343379275
 20
885.9210296498213
 10
655.1333433792748
 20
885.9210296498213
 10
655.1333433792748
 20
888.8210296498218
 10
645.1333433792748
 20
888.8210296498213
 10
645.1333433792748
 20
885.9210296498213
 10
635.1333433792748
 20
885.9210296498213
 10
635.133343379275
 20
888.8210296498213
 10
625.1333433792748
 20
888.8210296498213
 10
625.1333433792748
 20
885.9210296498213
 10
615.1333433792748
 20
885.9210296498213
 10
615.133343379275
 20
888.8210296498213
 10
605.1333433792748
 20
888.8210296498213
 10
605.1333433792748
 20
885.9210296498213
 10
595.1333433792748
 20
885.9210296498213
 10
595.1333433792748
 20
888.8210296498213
 10
585.1333433792748
 20
888.8210296498213
 10
585.1333433792748
 20
885.9210296498213
 10
575.1333433792748
 20
885.9210296498213
 10
575.1333433792748
 20
888.8210296498213
 10
565.1333433792748
 20
888.8210296498213
 10
565.1333433792748
 20
885.9210296498213
 10
555.1333433792748
 20
885.9210296498213
 10
555.133343379275
 20
888.8210296498213
 10
545.1333433792748
 20
888.8210296498213
 10
545.1333433792748
 20
885.9210296498213
 10
535.1333433792748
 20
885.9210296498213
 10
535.1333433792748
 20
888.8210296498213
 10
525.1333433792748
 20
888.8210296498213
 10
525.1333433792748
 20
885.9210296498213
 10
515.1333433792748
 20
885.9210296498213
 10
515.1333433792748
 20
888.8210296498213
 10
505.1333433792748
 20
888.8210296498213
 10
505.1333433792748
 20
885.9210296498213
 10
495.1333433792748
 20
885.9210296498213
 10
495.1333433792748
 20
888.8210296498213
 10
485.1333433792748
 20
888.8210296498213
 10
485.1333433792748
 20
885.9210296498213
 10
475.1333433792748
 20
885.9210296498213
 10
475.1333433792748
 20
888.8210296498213
 10
465.1333433792748
 20
888.8210296498213
 10
465.1333433792748
 20
885.9210296498213
 10
455.1333433792748
 20
885.9210296498213
 10
455.1333433792748
 20
888.8210296498213
 10
445.1333433792748
 20
888.8210296498213
 10
445.1333433792748
 20
885.9210296498213
 10
435.1333433792748
 20
885.9210296498213
 10
435.1333433792748
 20
888.8210296498213
 10
425.1333433792748
 20
888.8210296498213
 10
425.1333433792748
 20
885.9210296498213
 10
415.1333433792748
 20
885.9210296498213
 10
415.1333433792748
 20
888.8210296498213
 10
405.1333433792748
 20
888.8210296498213
 10
405.1333433792748
 20
885.9210296498213
 10
395.1333433792748
 20
885.9210296498213
 10
395.1333433792748
 20
888.8210296498213
 10
385.1333433792748
 20
888.8210296498213
 10
385.1333433792748
 20
885.9210296498213
 10
375.1333433792748
 20
885.9210296498213
 10
375.1333433792748
 20
888.8210296498213
 10
365.1333433792748
 20
888.8210296498213
 10
365.1333433792748
 20
885.9210296498213
 10
355.1333433792748
 20
885.9210296498213
 10
355.1333433792748
 20
888.8210296498213
 10
345.1333433792748
 20
888.8210296498213
 10
345.1333433792748
 20
885.9210296498213
 10
335.1333433792748
 20
885.9210296498213
 10
335.1333433792748
 20
888.8210296498213
 10
325.1333433792748
 20
888.8210296498213
 10
325.1333433792748
 20
885.9210296498213
 10
315.1333433792748
 20
885.9210296498213
 10
315.1333433792748
 20
888.8210296498213
 10
305.1333433792748
 20
888.8210296498213
 10
305.1333433792748
 20
885.9210296498213
 10
295.1333433792748
 20
885.9210296498213
 10
295.1333433792748
 20
888.8210296498213
 10
285.1333433792748
 20
888.8210296498213
 10
285.1333433792748
 20
885.9210296498213
 10
275.1333433792748
 20
885.9210296498213
 10
275.1333433792748
 20
888.8210296498213
 10
265.1333433792748
 20
888.8210296498213
 10
265.1333433792748
 20
885.9210296498213
 10
255.1333433792748
 20
885.9210296498213
 10
255.1333433792748
 20
888.8210296498213
 10
245.1333433792751
 20
888.8210296498213
 10
245.1333433792751
 20
885.9210296498213
 10
235.133343379275
 20
885.9210296498213
 10
235.133343379275
 20
888.8210296498213
 10
225.1333433792751
 20
888.8210296498213
 10
225.1333433792751
 20
885.9210296498213
 10
215.1333433792751
 20
885.9210296498213
 10
215.1333433792751
 20
888.8210296498213
 10
205.1333433792748
 20
888.8210296498213
 10
205.1333433792748
 20
885.9210296498213
 10
195.133343379275
 20
885.9210296498213
 10
195.133343379275
 20
888.8210296498213
 10
185.1333433792751
 20
888.8210296498213
 10
185.1333433792751
 20
885.9210296498213
 10
175.133343379275
 20
885.9210296498213
 10
175.133343379275
 20
888.8210296498213
 10
165.133343379275
 20
888.8210296498213
 10
165.133343379275
 20
885.9210296498213
 10
155.1333433792748
 20
885.9210296498213
 10
155.1333433792748
 20
888.8210296498213
 10
145.133343379275
 20
888.8210296498213
 10
145.133343379275
 20
885.9210296498213
 10
135.133343379275
 20
885.9210296498213
 10
135.133343379275
 20
888.8210296498213
 10
125.133343379275
 20
888.8210296498213
 10
125.133343379275
 20
885.9210296498213
 10
115.133343379275
 20
885.9210296498213
 10
115.133343379275
 20
888.8210296498213
 10
105.1333433792748
 20
888.8210296498213
 10
105.1333433792748
 20
885.9210296498213
 10
95.13334337927506
 20
885.9210296498213
 10
95.13334337927506
 20
888.8210296498213
 10
85.13334337927506
 20
888.8210296498213
 10
85.13334337927506
 20
885.9210296498213
 10
75.13334337927506
 20
885.9210296498213
 10
75.13334337927506
 20
888.8210296498213
 10
68.13334337927506
 20
888.8210296498213
 10
68.13334337927506
 20
895.721029649821
 10
65.13334337927506
 20
895.721029649821
 10
65.13334337927506
 20
905.9210296498218
 10
68.13334337927506
 20
905.9210296498218
 10
68.13334337927506
 20
915.721029649821
 10
65.13334337927506
 20
915.721029649821
 10
65.13334337927506
 20
925.9210296498217
 10
68.13334337927506
 20
925.9210296498217
 10
68.13334337927506
 20
938.0210296498217
 10
75.13334337927506
 20
938.0210296498217
 10
75.13334337927506
 20
940.9210296498217
 10
85.13334337927506
 20
940.9210296498217
 10
85.13334337927506
 20
938.0210296498217
 10
95.13334337927506
 20
938.0210296498217
 10
95.13334337927506
 20
940.9210296498217
 10
105.1333433792748
 20
940.9210296498217
 10
105.1333433792748
 20
938.0210296498217
 10
115.133343379275
 20
938.0210296498217
 10
115.133343379275
 20
940.9210296498217
 10
125.133343379275
 20
940.9210296498217
 10
125.133343379275
 20
938.0210296498217
 10
135.133343379275
 20
938.0210296498217
 10
135.133343379275
 20
940.9210296498217
 10
145.133343379275
 20
940.9210296498217
 10
145.133343379275
 20
938.0210296498217
 10
155.1333433792748
 20
938.0210296498217
 10
155.1333433792748
 20
940.9210296498217
 10
165.133343379275
 20
940.9210296498217
 10
165.133343379275
 20
938.0210296498217
 10
175.133343379275
 20
938.0210296498217
 10
175.133343379275
 20
940.9210296498217
 10
185.1333433792751
 20
940.9210296498217
 10
185.1333433792751
 20
938.0210296498217
 10
195.133343379275
 20
938.0210296498217
 10
195.133343379275
 20
940.9210296498217
 10
205.1333433792748
 20
940.9210296498217
 10
205.1333433792748
 20
938.0210296498217
 10
215.1333433792751
 20
938.0210296498217
 10
215.1333433792751
 20
940.9210296498217
 10
225.1333433792751
 20
940.9210296498217
 10
225.1333433792751
 20
938.0210296498217
 10
235.133343379275
 20
938.0210296498217
 10
235.133343379275
 20
940.9210296498217
 10
245.1333433792751
 20
940.9210296498217
 10
245.1333433792751
 20
938.0210296498217
 10
255.1333433792748
 20
938.0210296498217
 10
255.1333433792748
 20
940.9210296498217
 10
265.1333433792748
 20
940.9210296498217
 10
265.1333433792748
 20
938.0210296498217
 10
275.1333433792748
 20
938.0210296498217
 10
275.1333433792748
 20
940.9210296498217
 10
285.1333433792748
 20
940.9210296498217
 10
285.1333433792748
 20
938.0210296498217
 10
295.1333433792748
 20
938.0210296498217
 10
295.1333433792748
 20
940.9210296498217
 10
305.1333433792748
 20
940.9210296498217
 10
305.1333433792748
 20
938.0210296498217
 10
315.1333433792748
 20
938.0210296498217
 10
315.1333433792748
 20
940.9210296498217
 10
325.1333433792748
 20
940.9210296498217
 10
325.1333433792748
 20
938.0210296498217
 10
335.1333433792748
 20
938.0210296498217
 10
335.1333433792748
 20
940.9210296498217
 10
345.1333433792748
 20
940.9210296498217
 10
345.1333433792748
 20
938.0210296498217
 10
355.1333433792748
 20
938.0210296498217
 10
355.1333433792748
 20
940.9210296498217
 10
365.1333433792748
 20
940.9210296498217
 10
365.1333433792748
 20
938.0210296498217
 10
375.1333433792748
 20
938.0210296498217
 10
375.1333433792748
 20
940.9210296498217
 10
385.1333433792748
 20
940.9210296498217
 10
385.1333433792748
 20
938.0210296498217
 10
395.1333433792748
 20
938.0210296498217
 10
395.1333433792748
 20
940.9210296498217
 10
405.1333433792748
 20
940.9210296498217
 10
405.1333433792748
 20
938.0210296498217
 10
415.1333433792748
 20
938.0210296498217
 10
415.1333433792748
 20
940.9210296498217
 10
425.1333433792748
 20
940.9210296498217
 10
425.1333433792748
 20
938.0210296498217
 10
435.1333433792748
 20
938.0210296498217
 10
435.1333433792748
 20
940.9210296498217
 10
445.1333433792748
 20
940.9210296498217
 10
445.1333433792748
 20
938.0210296498217
 10
455.1333433792748
 20
938.0210296498217
 10
455.1333433792748
 20
940.9210296498217
 10
465.1333433792748
 20
940.9210296498217
 10
465.1333433792748
 20
938.0210296498217
 10
475.1333433792748
 20
938.0210296498217
 10
475.1333433792748
 20
940.9210296498217
 10
485.1333433792748
 20
940.9210296498217
 10
485.1333433792748
 20
938.0210296498217
 10
495.1333433792748
 20
938.0210296498217
 10
495.1333433792748
 20
940.9210296498217
 10
505.1333433792748
 20
940.9210296498217
 10
505.1333433792748
 20
938.0210296498217
 10
515.1333433792748
 20
938.0210296498217
 10
515.1333433792748
 20
940.9210296498217
 10
525.1333433792748
 20
940.9210296498217
 10
525.1333433792748
 20
938.0210296498217
 10
535.1333433792748
 20
938.0210296498217
 10
535.1333433792748
 20
940.9210296498217
 10
545.1333433792748
 20
940.9210296498217
 10
545.1333433792748
 20
938.0210296498217
 10
555.133343379275
 20
938.0210296498217
 10
555.1333433792748
 20
940.9210296498217
 10
565.1333433792748
 20
940.9210296498217
 10
565.1333433792748
 20
938.0210296498217
 10
575.1333433792748
 20
938.0210296498217
 10
575.1333433792748
 20
940.9210296498217
 10
585.1333433792748
 20
940.9210296498217
 10
585.1333433792748
 20
938.0210296498217
 10
595.1333433792748
 20
938.0210296498217
 10
595.1333433792748
 20
940.9210296498217
 10
605.1333433792748
 20
940.9210296498217
 10
605.1333433792748
 20
938.0210296498217
 10
615.133343379275
 20
938.0210296498217
 10
615.1333433792748
 20
940.9210296498217
 10
625.1333433792748
 20
940.9210296498217
 10
625.1333433792748
 20
938.0210296498217
 10
635.133343379275
 20
938.0210296498217
 10
635.1333433792748
 20
940.9210296498217
 10
645.1333433792748
 20
940.9210296498217
 10
645.1333433792748
 20
938.0210296498217
 10
655.1333433792748
 20
938.0210296498217
 10
655.1333433792748
 20
940.9210296498217
 10
665.133343379275
 20
940.9210296498217
 10
665.1333433792748
 20
938.0210296498217
 10
675.1333433792748
 20
938.0210296498217
 10
675.1333433792748
 20
940.9210296498217
 10
685.1333433792748
 20
940.9210296498217
 10
685.1333433792748
 20
938.0210296498217
 10
695.1333433792751
 20
938.0210296498217
 10
695.1333433792751
 20
940.9210296498217
 10
705.133343379275
 20
940.9210296498217
 10
705.133343379275
 20
938.0210296498217
 10
715.133343379275
 20
938.0210296498217
 10
715.133343379275
 20
940.9210296498217
 10
725.1333433792748
 20
940.9210296498217
 10
725.1333433792748
 20
938.0210296498217
 10
735.1333433792748
 20
938.0210296498217
 10
735.1333433792748
 20
940.9210296498217
 10
745.1333433792748
 20
940.9210296498217
 10
745.1333433792748
 20
938.0210296498217
 10
755.1333433792748
 20
938.0210296498217
 10
755.1333433792748
 20
940.9210296498217
 10
765.133343379275
 20
940.9210296498217
 10
765.1333433792748
 20
938.0210296498217
 10
775.1333433792748
 20
938.0210296498217
 10
775.1333433792748
 20
940.9210296498217
 10
785.1333433792748
 20
940.9210296498217
 10
785.1333433792748
 20
938.0210296498217
 10
795.1333433792751
 20
938.0210296498217
 10
795.1333433792751
 20
940.9210296498217
 10
805.133343379275
 20
940.9210296498217
 10
805.133343379275
 20
938.0210296498217
 10
812.133343379275
 20
938.0210296498217
 10
812.133343379275
 20
925.9210296498213
 10
815.133343379275
 20
925.9210296498213
 10
815.133343379275
 20
915.7210296498206
 10
812.133343379275
 20
915.7210296498206
 10
812.133343379275
 20
905.9210296498218
 10
815.133343379275
 20
905.9210296498218
 10
815.133343379275
 20
895.7210296498205
 10
812.133343379275
 20
895.7210296498205
  0
LWPOLYLINE
  5
45C
330
1F
100
AcDbEntity
  8
exterior cut
100
AcDbPolyline
 90
      316
 70
     1
 43
0.0
 10
812.133343379275
 20
-111.5055129983869
 10
805.133343379275
 20
-111.5055129983869
 10
805.133343379275
 20
-108.6055129983864
 10
795.1333433792751
 20
-108.6055129983864
 10
795.1333433792751
 20
-111.5055129983869
 10
785.1333433792748
 20
-111.5055129983869
 10
785.1333433792748
 20
-108.6055129983864
 10
775.1333433792748
 20
-108.6055129983864
 10
775.1333433792748
 20
-111.5055129983869
 10
765.1333433792748
 20
-111.5055129983869
 10
765.133343379275
 20
-108.6055129983864
 10
755.1333433792748
 20
-108.6055129983864
 10
755.1333433792748
 20
-111.5055129983869
 10
745.1333433792748
 20
-111.5055129983869
 10
745.1333433792748
 20
-108.6055129983864
 10
735.1333433792748
 20
-108.6055129983864
 10
735.1333433792748
 20
-111.5055129983869
 10
725.1333433792748
 20
-111.5055129983869
 10
725.1333433792748
 20
-108.6055129983864
 10
715.133343379275
 20
-108.6055129983864
 10
715.133343379275
 20
-111.5055129983869
 10
705.133343379275
 20
-111.5055129983869
 10
705.133343379275
 20
-108.6055129983864
 10
695.1333433792751
 20
-108.6055129983864
 10
695.1333433792751
 20
-111.5055129983869
 10
685.1333433792748
 20
-111.5055129983869
 10
685.1333433792748
 20
-108.6055129983864
 10
675.1333433792748
 20
-108.6055129983864
 10
675.1333433792748
 20
-111.5055129983869
 10
665.1333433792748
 20
-111.5055129983869
 10
665.133343379275
 20
-108.6055129983864
 10
655.1333433792748
 20
-108.6055129983864
 10
655.1333433792748
 20
-111.5055129983869
 10
645.1333433792748
 20
-111.5055129983865
 10
645.1333433792748
 20
-108.6055129983864
 10
635.1333433792748
 20
-108.6055129983864
 10
635.133343379275
 20
-111.5055129983865
 10
625.1333433792748
 20
-111.5055129983865
 10
625.1333433792748
 20
-108.6055129983864
 10
615.1333433792748
 20
-108.6055129983864
 10
615.133343379275
 20
-111.5055129983865
 10
605.1333433792748
 20
-111.5055129983865
 10
605.1333433792748
 20
-108.6055129983864
 10
595.1333433792748
 20
-108.6055129983864
 10
595.1333433792748
 20
-111.5055129983865
 10
585.1333433792748
 20
-111.5055129983865
 10
585.1333433792748
 20
-108.6055129983864
 10
575.1333433792748
 20
-108.6055129983864
 10
575.1333433792748
 20
-111.5055129983865
 10
565.1333433792748
 20
-111.5055129983865
 10
565.1333433792748
 20
-108.6055129983864
 10
555.1333433792748
 20
-108.6055129983864
 10
555.133343379275
 20
-111.5055129983865
 10
545.1333433792748
 20
-111.5055129983865
 10
545.1333433792748
 20
-108.6055129983864
 10
535.1333433792748
 20
-108.6055129983864
 10
535.1333433792748
 20
-111.5055129983865
 10
525.1333433792748
 20
-111.5055129983865
 10
525.1333433792748
 20
-108.6055129983864
 10
515.1333433792748
 20
-108.6055129983864
 10
515.1333433792748
 20
-111.5055129983865
 10
505.1333433792748
 20
-111.5055129983865
 10
505.1333433792748
 20
-108.6055129983864
 10
495.1333433792748
 20
-108.6055129983864
 10
495.1333433792748
 20
-111.5055129983865
 10
485.1333433792748
 20
-111.5055129983865
 10
485.1333433792748
 20
-108.6055129983864
 10
475.1333433792748
 20
-108.6055129983864
 10
475.1333433792748
 20
-111.5055129983865
 10
465.1333433792748
 20
-111.5055129983865
 10
465.1333433792748
 20
-108.6055129983864
 10
455.1333433792748
 20
-108.6055129983864
 10
455.1333433792748
 20
-111.5055129983865
 10
445.1333433792748
 20
-111.5055129983865
 10
445.1333433792748
 20
-108.6055129983864
 10
435.1333433792748
 20
-108.6055129983864
 10
435.1333433792748
 20
-111.5055129983865
 10
425.1333433792748
 20
-111.5055129983865
 10
425.1333433792748
 20
-108.6055129983864
 10
415.1333433792748
 20
-108.6055129983864
 10
415.1333433792748
 20
-111.5055129983865
 10
405.1333433792748
 20
-111.5055129983865
 10
405.1333433792748
 20
-108.6055129983864
 10
395.1333433792748
 20
-108.6055129983864
 10
395.1333433792748
 20
-111.5055129983865
 10
385.1333433792748
 20
-111.5055129983865
 10
385.1333433792748
 20
-108.6055129983864
 10
375.1333433792748
 20
-108.6055129983864
 10
375.1333433792748
 20
-111.5055129983865
 10
365.1333433792748
 20
-111.5055129983865
 10
365.1333433792748
 20
-108.6055129983864
 10
355.1333433792748
 20
-108.6055129983864
 10
355.1333433792748
 20
-111.5055129983865
 10
345.1333433792748
 20
-111.5055129983865
 10
345.1333433792748
 20
-108.6055129983864
 10
335.1333433792748
 20
-108.6055129983864
 10
335.1333433792748
 20
-111.5055129983865
 10
325.1333433792748
 20
-111.5055129983865
 10
325.1333433792748
 20
-108.6055129983864
 10
315.1333433792748
 20
-108.6055129983864
 10
315.1333433792748
 20
-111.5055129983865
 10
305.1333433792748
 20
-111.5055129983865
 10
305.1333433792748
 20
-108.6055129983864
 10
295.1333433792748
 20
-108.6055129983864
 10
295.1333433792748
 20
-111.5055129983865
 10
285.1333433792748
 20
-111.5055129983865
 10
285.1333433792748
 20
-108.6055129983864
 10
275.1333433792748
 20
-108.6055129983864
 10
275.1333433792748
 20
-111.5055129983865
 10
265.1333433792748
 20
-111.5055129983865
 10
265.1333433792748
 20
-108.6055129983864
 10
255.1333433792748
 20
-108.6055129983864
 10
255.1333433792748
 20
-111.5055129983865
 10
245.1333433792751
 20
-111.5055129983865
 10
245.1333433792751
 20
-108.6055129983864
 10
235.133343379275
 20
-108.6055129983864
 10
235.133343379275
 20
-111.5055129983865
 10
225.1333433792751
 20
-111.5055129983865
 10
225.1333433792751
 20
-108.6055129983864
 10
215.1333433792751
 20
-108.6055129983864
 10
215.1333433792751
 20
-111.5055129983865
 10
205.1333433792748
 20
-111.5055129983865
 10
205.1333433792748
 20
-108.6055129983864
 10
195.133343379275
 20
-108.6055129983864
 10
195.133343379275
 20
-111.5055129983865
 10
185.1333433792751
 20
-111.5055129983865
 10
185.1333433792751
 20
-108.6055129983864
 10
175.133343379275
 20
-108.6055129983864
 10
175.133343379275
 20
-111.5055129983865
 10
165.133343379275
 20
-111.5055129983865
 10
165.133343379275
 20
-108.6055129983864
 10
155.1333433792748
 20
-108.6055129983864
 10
155.1333433792748
 20
-111.5055129983865
 10
145.133343379275
 20
-111.5055129983865
 10
145.133343379275
 20
-108.6055129983864
 10
135.133343379275
 20
-108.6055129983864
 10
135.133343379275
 20
-111.5055129983865
 10
125.133343379275
 20
-111.5055129983865
 10
125.133343379275
 20
-108.6055129983864
 10
115.133343379275
 20
-108.6055129983864
 10
115.133343379275
 20
-111.5055129983865
 10
105.1333433792748
 20
-111.5055129983865
 10
105.1333433792748
 20
-108.6055129983864
 10
95.13334337927506
 20
-108.6055129983864
 10
95.13334337927506
 20
-111.5055129983865
 10
85.13334337927506
 20
-111.5055129983865
 10
85.13334337927506
 20
-108.6055129983864
 10
75.13334337927506
 20
-108.6055129983864
 10
75.13334337927506
 20
-111.5055129983865
 10
68.13334337927506
 20
-111.5055129983865
 10
68.13334337927506
 20
-118.4055129983861
 10
65.13334337927506
 20
-118.4055129983861
 10
65.13334337927506
 20
-128.6055129983868
 10
68.13334337927506
 20
-128.6055129983868
 10
68.13334337927506
 20
-138.4055129983861
 10
65.13334337927506
 20
-138.4055129983861
 10
65.13334337927506
 20
-148.6055129983868
 10
68.13334337927506
 20
-148.6055129983868
 10
68.13334337927506
 20
-160.7055129983868
 10
75.13334337927506
 20
-160.7055129983868
 10
75.13334337927506
 20
-163.6055129983868
 10
85.13334337927506
 20
-163.6055129983868
 10
85.13334337927506
 20
-160.7055129983868
 10
95.13334337927506
 20
-160.7055129983868
 10
95.13334337927506
 20
-163.6055129983868
 10
105.1333433792748
 20
-163.6055129983868
 10
105.1333433792748
 20
-160.7055129983868
 10
115.133343379275
 20
-160.7055129983868
 10
115.133343379275
 20
-163.6055129983868
 10
125.133343379275
 20
-163.6055129983868
 10
125.133343379275
 20
-160.7055129983868
 10
135.133343379275
 20
-160.7055129983868
 10
135.133343379275
 20
-163.6055129983868
 10
145.133343379275
 20
-163.6055129983868
 10
145.133343379275
 20
-160.7055129983868
 10
155.1333433792748
 20
-160.7055129983868
 10
155.1333433792748
 20
-163.6055129983868
 10
165.133343379275
 20
-163.6055129983868
 10
165.133343379275
 20
-160.7055129983868
 10
175.133343379275
 20
-160.7055129983868
 10
175.133343379275
 20
-163.6055129983868
 10
185.1333433792751
 20
-163.6055129983868
 10
185.1333433792751
 20
-160.7055129983868
 10
195.133343379275
 20
-160.7055129983868
 10
195.133343379275
 20
-163.6055129983868
 10
205.1333433792748
 20
-163.6055129983868
 10
205.1333433792748
 20
-160.7055129983868
 10
215.1333433792751
 20
-160.7055129983868
 10
215.1333433792751
 20
-163.6055129983868
 10
225.1333433792751
 20
-163.6055129983868
 10
225.1333433792751
 20
-160.7055129983868
 10
235.133343379275
 20
-160.7055129983868
 10
235.133343379275
 20
-163.6055129983868
 10
245.1333433792751
 20
-163.6055129983868
 10
245.1333433792751
 20
-160.7055129983868
 10
255.1333433792748
 20
-160.7055129983868
 10
255.1333433792748
 20
-163.6055129983868
 10
265.1333433792748
 20
-163.6055129983868
 10
265.1333433792748
 20
-160.7055129983868
 10
275.1333433792748
 20
-160.7055129983868
 10
275.1333433792748
 20
-163.6055129983868
 10
285.1333433792748
 20
-163.6055129983868
 10
285.1333433792748
 20
-160.7055129983868
 10
295.1333433792748
 20
-160.7055129983868
 10
295.1333433792748
 20
-163.6055129983868
 10
305.1333433792748
 20
-163.6055129983868
 10
305.1333433792748
 20
-160.7055129983868
 10
315.1333433792748
 20
-160.7055129983868
 10
315.1333433792748
 20
-163.6055129983868
 10
325.1333433792748
 20
-163.6055129983868
 10
325.1333433792748
 20
-160.7055129983868
 10
335.1333433792748
 20
-160.7055129983868
 10
335.1333433792748
 20
-163.6055129983868
 10
345.1333433792748
 20
-163.6055129983868
 10
345.1333433792748
 20
-160.7055129983868
 10
355.1333433792748
 20
-160.7055129983868
 10
355.1333433792748
 20
-163.6055129983868
 10
365.1333433792748
 20
-163.6055129983868
 10
365.1333433792748
 20
-160.7055129983868
 10
375.1333433792748
 20
-160.7055129983868
 10
375.1333433792748
 20
-163.6055129983868
 10
385.1333433792748
 20
-163.6055129983868
 10
385.1333433792748
 20
-160.7055129983868
 10
395.1333433792748
 20
-160.7055129983868
 10
395.1333433792748
 20
-163.6055129983868
 10
405.1333433792748
 20
-163.6055129983868
 10
405.1333433792748
 20
-160.7055129983868
 10
415.1333433792748
 20
-160.7055129983868
 10
415.1333433792748
 20
-163.6055129983868
 10
425.1333433792748
 20
-163.6055129983868
 10
425.1333433792748
 20
-160.7055129983868
 10
435.1333433792748
 20
-160.7055129983868
 10
435.1333433792748
 20
-163.6055129983868
 10
445.1333433792748
 20
-163.6055129983868
 10
445.1333433792748
 20
-160.7055129983868
 10
455.1333433792748
 20
-160.7055129983868
 10
455.1333433792748
 20
-163.6055129983868
 10
465.1333433792748
 20
-163.6055129983868
 10
465.1333433792748
 20
-160.7055129983868
 10
475.1333433792748
 20
-160.7055129983868
 10
475.1333433792748
 20
-163.6055129983868
 10
485.1333433792748
 20
-163.6055129983868
 10
485.1333433792748
 20
-160.7055129983868
 10
495.1333433792748
 20
-160.7055129983868
 10
495.1333433792748
 20
-163.6055129983868
 10
505.1333433792748
 20
-163.6055129983868
 10
505.1333433792748
 20
-160.7055129983868
 10
515.1333433792748
 20
-160.7055129983868
 10
515.1333433792748
 20
-163.6055129983868
 10
525.1333433792748
 20
-163.6055129983868
 10
525.1333433792748
 20
-160.7055129983868
 10
535.1333433792748
 20
-160.7055129983868
 10
535.1333433792748
 20
-163.6055129983868
 10
545.1333433792748
 20
-163.6055129983868
 10
545.1333433792748
 20
-160.7055129983868
 10
555.133343379275
 20
-160.7055129983868
 10
555.1333433792748
 20
-163.6055129983868
 10
565.1333433792748
 20
-163.6055129983868
 10
565.1333433792748
 20
-160.7055129983868
 10
575.1333433792748
 20
-160.7055129983868
 10
575.1333433792748
 20
-163.6055129983868
 10
585.1333433792748
 20
-163.6055129983868
 10
585.1333433792748
 20
-160.7055129983868
 10
595.1333433792748
 20
-160.7055129983868
 10
595.1333433792748
 20
-163.6055129983868
 10
605.1333433792748
 20
-163.6055129983868
 10
605.1333433792748
 20
-160.7055129983868
 10
615.133343379275
 20
-160.7055129983868
 10
615.1333433792748
 20
-163.6055129983868
 10
625.1333433792748
 20
-163.6055129983868
 10
625.1333433792748
 20
-160.7055129983868
 10
635.133343379275
 20
-160.7055129983868
 10
635.1333433792748
 20
-163.6055129983868
 10
645.1333433792748
 20
-163.6055129983868
 10
645.1333433792748
 20
-160.7055129983868
 10
655.1333433792748
 20
-160.7055129983868
 10
655.1333433792748
 20
-163.6055129983868
 10
665.133343379275
 20
-163.6055129983868
 10
665.1333433792748
 20
-160.7055129983868
 10
675.1333433792748
 20
-160.7055129983868
 10
675.1333433792748
 20
-163.6055129983868
 10
685.1333433792748
 20
-163.6055129983868
 10
685.1333433792748
 20
-160.7055129983868
 10
695.1333433792751
 20
-160.7055129983868
 10
695.1333433792751
 20
-163.6055129983868
 10
705.133343379275
 20
-163.6055129983868
 10
705.133343379275
 20
-160.7055129983868
 10
715.133343379275
 20
-160.7055129983868
 10
715.133343379275
 20
-163.6055129983868
 10
725.1333433792748
 20
-163.6055129983868
 10
725.1333433792748
 20
-160.7055129983868
 10
735.1333433792748
 20
-160.7055129983868
 10
735.1333433792748
 20
-163.6055129983868
 10
745.1333433792748
 20
-163.6055129983868
 10
745.1333433792748
 20
-160.7055129983868
 10
755.1333433792748
 20
-160.7055129983868
 10
755.1333433792748
 20
-163.6055129983868
 10
765.133343379275
 20
-163.6055129983868
 10
765.1333433792748
 20
-160.7055129983868
 10
775.1333433792748
 20
-160.7055129983868
 10
775.1333433792748
 20
-163.6055129983868
 10
785.1333433792748
 20
-163.6055129983868
 10
785.1333433792748
 20
-160.7055129983868
 10
795.1333433792751
 20
-160.7055129983868
 10
795.1333433792751
 20
-163.6055129983868
 10
805.133343379275
 20
-163.6055129983868
 10
805.133343379275
 20
-160.7055129983868
 10
812.133343379275
 20
-160.7055129983868
 10
812.133343379275
 20
-148.6055129983864
 10
815.133343379275
 20
-148.6055129983864
 10
815.133343379275
 20
-138.4055129983857
 10
812.133343379275
 20
-138.4055129983857
 10
812.133343379275
 20
-128.6055129983868
 10
815.133343379275
 20
-128.6055129983868
 10
815.133343379275
 20
-118.4055129983857
 10
812.133343379275
 20
-118.4055129983857
  0
LWPOLYLINE
  5
45D
330
1F
100
AcDbEntity
  8
exterior cut
100
AcDbPolyline
 90
      323
 70
     0
 43
0.0
 10
-128.4945503062888
 20
3.657758325719553
 10
-128.4945503062888
 20
13.75775832572174
 10
-125.494550306292
 20
13.75775832572174
 10
-125.494550306292
 20
23.55775832571737
 10
-128.4945503062888
 20
23.55775832571737
 10
-128.4945503062888
 20
33.75775832572174
 10
-125.4945503062883
 20
33.75775832572174
 10
-125.494550306292
 20
43.55775832571738
 10
-128.4945503062888
 20
43.55775832571738
 10
-128.4945503062888
 20
53.75775832572173
 10
-125.494550306292
 20
53.75775832572173
 10
-125.494550306292
 20
63.55775832571736
 10
-128.4945503062888
 20
63.55775832571736
 10
-128.4945503062888
 20
73.75775832572172
 10
-125.5226529554095
 20
73.75775832572172
 10
-125.5226529554095
 20
83.55775832571737
 10
-128.4945503062888
 20
83.55775832571737
 10
-128.4945503062888
 20
93.75775832572173
 10
-125.5226529554095
 20
93.75775832572173
 10
-125.5226529554095
 20
103.5577583257173
 10
-128.4945503062888
 20
103.5577583257173
 10
-128.4945503062888
 20
113.7577583257217
 10
-125.4945503062883
 20
113.7577583257217
 10
-125.4945503062883
 20
123.5577583257172
 10
-128.4945503062888
 20
123.5577583257172
 10
-128.4945503062888
 20
133.7577583257216
 10
-125.4945503062883
 20
133.7577583257216
 10
-125.4945503062883
 20
143.5577583257172
 10
-128.4945503062888
 20
143.5577583257172
 10
-128.4945503062888
 20
153.7577583257216
 10
-125.4945503062883
 20
153.7577583257216
 10
-125.4945503062883
 20
163.5577583257172
 10
-128.4945503062888
 20
163.5577583257172
 10
-128.4945503062888
 20
173.7577583257216
 10
-125.4945503062883
 20
173.7577583257216
 10
-125.4945503062883
 20
183.5577583257173
 10
-128.4945503062888
 20
183.5577583257173
 10
-128.4945503062888
 20
193.7577583257216
 10
-125.4945503062883
 20
193.7577583257216
 10
-125.4945503062883
 20
203.5577583257173
 10
-128.4945503062888
 20
203.5577583257173
 10
-128.4945503062888
 20
213.7577583257217
 10
-125.4945503062883
 20
213.7577583257217
 10
-125.4945503062883
 20
223.5577583257173
 10
-128.4945503062888
 20
223.5577583257173
 10
-128.4945503062888
 20
233.7577583257218
 10
-125.4945503062883
 20
233.7577583257218
 10
-125.4945503062883
 20
243.5577583257173
 10
-128.4945503062888
 20
243.5577583257173
 10
-128.4945503062888
 20
253.7577583257216
 10
-125.4945503062883
 20
253.7577583257216
 10
-125.4945503062883
 20
263.5577583257174
 10
-128.4945503062888
 20
263.5577583257174
 10
-128.4945503062888
 20
273.7577583257217
 10
-125.4945503062883
 20
273.7577583257217
 10
-125.4945503062883
 20
283.5577583257174
 10
-128.4945503062888
 20
283.5577583257174
 10
-128.4945503062888
 20
293.7577583257217
 10
-125.4945503062883
 20
293.7577583257217
 10
-125.4945503062883
 20
303.5577583257174
 10
-128.4945503062888
 20
303.5577583257174
 10
-128.4945503062888
 20
313.7577583257217
 10
-125.4945503062883
 20
313.7577583257217
 10
-125.4945503062883
 20
323.5577583257174
 10
-128.4945503062888
 20
323.5577583257174
 10
-128.4945503062888
 20
333.7577583257218
 10
-125.4945503062883
 20
333.7577583257218
 10
-125.4945503062883
 20
343.5577583257174
 10
-128.4945503062888
 20
343.5577583257174
 10
-128.4945503062888
 20
353.7577583257217
 10
-125.4945503062883
 20
353.7577583257217
 10
-125.4945503062883
 20
363.5577583257175
 10
-128.4945503062888
 20
363.5577583257175
 10
-128.4945503062888
 20
373.7577583257217
 10
-125.4945503062883
 20
373.7577583257217
 10
-125.4945503062883
 20
383.5577583257175
 10
-128.4945503062888
 20
383.5577583257175
 10
-128.4945503062888
 20
393.7577583257219
 10
-125.4945503062883
 20
393.7577583257219
 10
-125.4945503062883
 20
403.5577583257174
 10
-128.4945503062888
 20
403.5577583257174
 10
-128.4945503062888
 20
413.7577583257217
 10
-125.4945503062883
 20
413.7577583257217
 10
-125.494550306292
 20
423.5577583257172
 10
-128.4945503062888
 20
423.5577583257172
 10
-128.4945503062888
 20
433.7577583257215
 10
-125.4945503062883
 20
433.7577583257215
 10
-125.4945503062883
 20
443.5577583257171
 10
-128.4945503062888
 20
443.5577583257171
 10
-128.4945503062888
 20
453.7577583257216
 10
-125.4945503062883
 20
453.7577583257216
 10
-125.4945503062883
 20
463.5577583257174
 10
-128.4945503062888
 20
463.5577583257174
 10
-128.4945503062888
 20
473.7577583257216
 10
-125.4945503062883
 20
473.7577583257216
 10
-125.4945503062883
 20
483.5577583257172
 10
-128.4945503062888
 20
483.5577583257172
 10
-128.4945503062888
 20
493.7577583257216
 10
-125.4945503062883
 20
493.7577583257216
 10
-125.4945503062883
 20
503.5577583257171
 10
-128.4945503062888
 20
503.5577583257171
 10
-128.4945503062888
 20
513.7577583257215
 10
-125.4945503062883
 20
513.7577583257215
 10
-125.4945503062883
 20
523.5577583257171
 10
-128.4945503062888
 20
523.5577583257171
 10
-128.4945503062888
 20
533.7577583257217
 10
-125.4945503062883
 20
533.7577583257217
 10
-125.4945503062883
 20
543.5577583257173
 10
-128.4945503062888
 20
543.5577583257173
 10
-128.4945503062888
 20
553.7577583257217
 10
-125.4945503062883
 20
553.7577583257217
 10
-125.4945503062883
 20
563.5577583257173
 10
-128.4945503062888
 20
563.5577583257173
 10
-128.4945503062888
 20
573.7577583257217
 10
-125.4945503062883
 20
573.7577583257217
 10
-125.4945503062883
 20
583.5577583257173
 10
-128.4945503062888
 20
583.5577583257173
 10
-128.4945503062888
 20
593.7577583257215
 10
-125.4945503062883
 20
593.7577583257215
 10
-125.4945503062883
 20
603.5577583257174
 10
-128.4945503062888
 20
603.5577583257174
 10
-128.4945503062888
 20
613.7577583257216
 10
-125.4945503062883
 20
613.7577583257216
 10
-125.4945503062883
 20
623.5577583257171
 10
-128.4945503062888
 20
623.5577583257171
 10
-128.4945503062888
 20
633.7577583257216
 10
-125.4945503062883
 20
633.7577583257216
 10
-125.494550306292
 20
643.5577583257173
 10
-128.4945503062888
 20
643.5577583257173
 10
-128.4945503062888
 20
653.7577583257216
 10
-125.494550306292
 20
653.7577583257216
 10
-125.494550306292
 20
663.5577583257173
 10
-125.494550306292
 20
663.5577583257173
 10
-128.4945503062888
 20
663.5577583257173
 10
-128.4945503062888
 20
673.7577583257217
 10
-125.494550306292
 20
673.7577583257217
 10
-125.494550306292
 20
683.5577583257173
 10
-128.4945503062888
 20
683.5577583257173
 10
-128.4945503062888
 20
693.7577583257217
 10
-125.494550306292
 20
693.7577583257217
 10
-125.494550306292
 20
703.5577583257171
 10
-128.4945503062888
 20
703.5577583257171
 10
-128.4945503062888
 20
713.7577583257215
 10
-125.494550306292
 20
713.7577583257215
 10
-125.494550306292
 20
723.5577583257172
 10
-128.4945503062888
 20
723.5577583257172
 10
-128.4945503062888
 20
733.7577583257215
 10
-125.494550306292
 20
733.7577583257215
 10
-125.494550306292
 20
743.5577583257172
 10
-128.4945503062888
 20
743.5577583257172
 10
-128.4945503062888
 20
753.757758325718
 10
-128.4945503062888
 20
753.757758325718
 10
-128.4945503062888
 20
753.757758325718
 10
-118.2945503062913
 20
753.757758325718
 10
-118.2945503062913
 20
750.7577583257179
 10
-108.4945503062884
 20
750.7577583257179
 10
-108.4945503062884
 20
753.757758325718
 10
-98.29455030629128
 20
753.757758325718
 10
-98.29455030629128
 20
750.7577583257179
 10
-88.49455030628837
 20
750.7577583257179
 10
-88.49455030628837
 20
753.757758325718
 10
-73.29455030629128
 20
753.757758325718
 10
-73.29455030629128
 20
753.757758325718
 10
-73.29455030629128
 20
743.5577583257172
 10
-76.29455030629128
 20
743.5577583257172
 10
-76.29455030629128
 20
733.7577583257215
 10
-73.29455030629128
 20
733.7577583257215
 10
-73.29455030629128
 20
723.5577583257172
 10
-76.29455030629128
 20
723.5577583257172
 10
-76.29455030629128
 20
713.7577583257215
 10
-73.29455030629128
 20
713.7577583257215
 10
-73.29455030629128
 20
703.5577583257171
 10
-76.29455030629128
 20
703.5577583257171
 10
-76.29455030629128
 20
693.7577583257217
 10
-73.29455030629128
 20
693.7577583257217
 10
-73.29455030629128
 20
683.5577583257173
 10
-76.29455030629128
 20
683.5577583257173
 10
-76.29455030629128
 20
673.7577583257217
 10
-73.29455030629128
 20
673.7577583257217
 10
-73.29455030629128
 20
663.5577583257173
 10
-76.29455030629128
 20
663.5577583257173
 10
-76.29455030629128
 20
663.5577583257173
 10
-76.29455030629128
 20
653.7577583257216
 10
-73.29455030629128
 20
653.7577583257216
 10
-73.29455030629128
 20
643.5577583257173
 10
-76.29455030629128
 20
643.5577583257173
 10
-76.29455030629128
 20
633.7577583257216
 10
-73.29455030629128
 20
633.7577583257216
 10
-73.29455030629128
 20
623.5577583257171
 10
-76.29455030629128
 20
623.5577583257171
 10
-76.29455030629128
 20
613.7577583257216
 10
-73.29455030629128
 20
613.7577583257216
 10
-73.29455030629128
 20
603.5577583257174
 10
-76.29455030629128
 20
603.5577583257174
 10
-76.29455030629128
 20
593.7577583257215
 10
-73.29455030629128
 20
593.7577583257215
 10
-73.29455030629128
 20
583.5577583257173
 10
-76.29455030629128
 20
583.5577583257173
 10
-76.29455030629128
 20
573.7577583257217
 10
-73.29455030629128
 20
573.7577583257217
 10
-73.29455030629128
 20
563.5577583257173
 10
-76.29455030629128
 20
563.5577583257173
 10
-76.29455030629128
 20
553.7577583257217
 10
-73.29455030629128
 20
553.7577583257217
 10
-73.29455030629128
 20
543.5577583257173
 10
-76.29455030629128
 20
543.5577583257173
 10
-76.29455030629128
 20
533.7577583257217
 10
-73.29455030629128
 20
533.7577583257217
 10
-73.29455030629128
 20
523.5577583257171
 10
-76.29455030629128
 20
523.5577583257171
 10
-76.29455030629128
 20
513.7577583257215
 10
-73.29455030629128
 20
513.7577583257215
 10
-73.29455030629128
 20
503.5577583257171
 10
-76.29455030629128
 20
503.5577583257171
 10
-76.29455030629128
 20
493.7577583257216
 10
-73.29455030629128
 20
493.7577583257216
 10
-73.29455030629128
 20
483.5577583257172
 10
-76.29455030629128
 20
483.5577583257172
 10
-76.29455030629128
 20
473.7577583257216
 10
-73.29455030629128
 20
473.7577583257216
 10
-73.29455030629128
 20
463.5577583257174
 10
-76.29455030629128
 20
463.5577583257174
 10
-76.29455030629128
 20
453.7577583257216
 10
-73.29455030629128
 20
453.7577583257216
 10
-73.29455030629128
 20
443.5577583257171
 10
-76.29455030629128
 20
443.5577583257171
 10
-76.29455030629128
 20
433.7577583257215
 10
-73.29455030629128
 20
433.7577583257215
 10
-73.29455030629128
 20
423.5577583257172
 10
-76.29455030629128
 20
423.5577583257172
 10
-76.29455030629128
 20
413.7577583257217
 10
-73.29455030629128
 20
413.7577583257217
 10
-73.29455030629128
 20
403.5577583257174
 10
-76.29455030629128
 20
403.5577583257174
 10
-76.29455030629128
 20
393.7577583257219
 10
-73.29455030629128
 20
393.7577583257219
 10
-73.29455030629128
 20
383.5577583257175
 10
-76.29455030629128
 20
383.5577583257175
 10
-76.29455030629128
 20
373.7577583257217
 10
-73.29455030629128
 20
373.7577583257217
 10
-73.29455030629128
 20
363.5577583257175
 10
-76.29455030629128
 20
363.5577583257175
 10
-76.29455030629128
 20
353.7577583257217
 10
-73.29455030629128
 20
353.7577583257217
 10
-73.29455030629128
 20
343.5577583257174
 10
-76.29455030629128
 20
343.5577583257174
 10
-76.29455030629128
 20
333.7577583257218
 10
-73.29455030629128
 20
333.7577583257218
 10
-73.29455030629128
 20
323.5577583257174
 10
-76.29455030629128
 20
323.5577583257174
 10
-76.29455030629128
 20
313.7577583257217
 10
-73.29455030629128
 20
313.7577583257217
 10
-73.29455030629128
 20
303.5577583257174
 10
-76.29455030629128
 20
303.5577583257174
 10
-76.29455030629128
 20
293.7577583257217
 10
-73.29455030629128
 20
293.7577583257217
 10
-73.29455030629128
 20
283.5577583257174
 10
-76.29455030629128
 20
283.5577583257174
 10
-76.29455030629128
 20
273.7577583257217
 10
-73.29455030629128
 20
273.7577583257217
 10
-73.29455030629128
 20
263.5577583257174
 10
-76.29455030629128
 20
263.5577583257174
 10
-76.29455030629128
 20
253.7577583257216
 10
-73.29455030629128
 20
253.7577583257216
 10
-73.29455030629128
 20
243.5577583257173
 10
-76.29455030629128
 20
243.5577583257173
 10
-76.29455030629128
 20
233.7577583257218
 10
-73.29455030629128
 20
233.7577583257218
 10
-73.29455030629128
 20
223.5577583257173
 10
-76.29455030629128
 20
223.5577583257173
 10
-76.29455030629128
 20
213.7577583257217
 10
-73.29455030629128
 20
213.7577583257217
 10
-73.29455030629128
 20
203.5577583257173
 10
-76.29455030629128
 20
203.5577583257173
 10
-76.29455030629128
 20
193.7577583257216
 10
-73.29455030629128
 20
193.7577583257216
 10
-73.29455030629128
 20
183.5577583257173
 10
-76.29455030629128
 20
183.5577583257173
 10
-76.29455030629128
 20
173.7577583257216
 10
-73.29455030629128
 20
173.7577583257216
 10
-73.29455030629128
 20
163.5577583257172
 10
-76.29455030629128
 20
163.5577583257172
 10
-76.29455030629128
 20
153.7577583257216
 10
-73.29455030629128
 20
153.7577583257216
 10
-73.29455030629128
 20
143.5577583257172
 10
-76.29455030629128
 20
143.5577583257172
 10
-76.29455030629128
 20
133.7577583257216
 10
-73.29455030629128
 20
133.7577583257216
 10
-73.29455030629128
 20
123.5577583257172
 10
-76.29455030629128
 20
123.5577583257172
 10
-76.29455030629128
 20
113.7577583257217
 10
-73.29455030629128
 20
113.7577583257217
 10
-73.29455030629128
 20
103.5577583257173
 10
-76.26644765717014
 20
103.5577583257173
 10
-76.26644765717014
 20
93.75775832572173
 10
-73.29455030629128
 20
93.75775832572173
 10
-73.29455030629128
 20
83.55775832571737
 10
-76.26644765717014
 20
83.55775832571737
 10
-76.26644765717014
 20
73.75775832572172
 10
-73.29455030629128
 20
73.75775832572172
 10
-73.29455030629128
 20
63.55775832571736
 10
-76.29455030629128
 20
63.55775832571736
 10
-76.29455030629128
 20
53.75775832572173
 10
-73.29455030629128
 20
53.75775832572173
 10
-73.29455030629128
 20
43.55775832571738
 10
-76.29455030629128
 20
43.55775832571738
 10
-76.29455030629128
 20
33.75775832572174
 10
-73.29455030629128
 20
33.75775832572174
 10
-73.29455030629128
 20
23.55775832571737
 10
-76.29455030629128
 20
23.55775832571737
 10
-76.29455030629128
 20
13.75775832572174
 10
-73.29455030629128
 20
13.75775832572174
 10
-73.29455030629128
 20
3.657758325719553
 10
-88.49455030628837
 20
3.657758325719553
 10
-88.49455030628837
 20
6.657758325719555
 10
-98.29455030629128
 20
6.657758325719555
 10
-98.29455030629128
 20
3.657758325719553
 10
-108.4945503062884
 20
3.657758325719553
 10
-108.4945503062884
 20
6.657758325719555
 10
-118.2945503062913
 20
6.657758325719555
 10
-118.2945503062913
 20
3.657758325719553
 10
-128.4945503062888
 20
3.657758325719553
 10
-128.4945503062888
 20
6.657758325719555
  0
ENDSEC
  0
SECTION
  2
OBJECTS
  0
DICTIONARY
  5
C
330
0
100
AcDbDictionary
281
     1
  3
ACAD_CIP_PREVIOUS_PRODUCT_INFO
350
216
  3
ACAD_COLOR
350
6B
  3
ACAD_DETAILVIEWSTYLE
350
21B
  3
ACAD_GROUP
350
D
  3
ACAD_LAYOUT
350
1A
  3
ACAD_MATERIAL
350
6A
  3
ACAD_MLEADERSTYLE
350
12D
  3
ACAD_MLINESTYLE
350
17
  3
ACAD_PLOTSETTINGS
350
19
  3
ACAD_PLOTSTYLENAME
350
E
  3
ACAD_SCALELIST
350
10C
  3
ACAD_SECTIONVIEWSTYLE
350
219
  3
ACAD_TABLESTYLE
350
7E
  3
ACAD_VISUALSTYLE
350
EF
  3
ACDB_RECOMPOSE_DATA
350
5E5
  3
AcDbVariableDictionary
350
5E
  3
AcDsDecomposeData
350
5EB
  0
DICTIONARY
  5
1FF
330
2
100
AcDbDictionary
280
     1
281
     1
  3
ACAD_LAYERSTATES
360
200
  0
DICTIONARY
  5
13C
330
10
100
AcDbDictionary
280
     1
281
     1
  0
DICTIONARY
  5
1CE
330
1F
100
AcDbDictionary
280
     1
281
     1
  0
XRECORD
  5
216
102
{ACAD_REACTORS
330
C
102
}
330
C
100
AcDbXrecord
280
     1
300
ACD
300
2014
300
ACD_F_S
  0
DICTIONARY
  5
6B
102
{ACAD_REACTORS
330
C
102
}
330
C
100
AcDbDictionary
281
     1
  0
DICTIONARY
  5
21B
102
{ACAD_REACTORS
330
C
102
}
330
C
100
AcDbDictionary
281
     1
  3
Metric50
350
21C
  0
DICTIONARY
  5
D
102
{ACAD_REACTORS
330
C
102
}
330
C
100
AcDbDictionary
281
     1
  0
DICTIONARY
  5
1A
102
{ACAD_REACTORS
330
C
102
}
330
C
100
AcDbDictionary
281
     1
  3
Model
350
22
  3
Presentación1
350
D3
  3
Presentación2
350
D7
  0
DICTIONARY
  5
6A
102
{ACAD_REACTORS
330
C
102
}
330
C
100
AcDbDictionary
281
     1
  3
ByBlock
350
ED
  3
ByLayer
350
EC
  3
Global
350
EE
  0
DICTIONARY
  5
12D
102
{ACAD_REACTORS
330
C
102
}
330
C
100
AcDbDictionary
281
     1
  3
Anotativo
350
13B
  3
Standard
350
12E
  0
DICTIONARY
  5
17
102
{ACAD_REACTORS
330
C
102
}
330
C
100
AcDbDictionary
281
     1
  3
Standard
350
18
  0
DICTIONARY
  5
19
102
{ACAD_REACTORS
330
C
102
}
330
C
100
AcDbDictionary
281
     1
  0
ACDBDICTIONARYWDFLT
  5
E
102
{ACAD_REACTORS
330
C
102
}
330
C
100
AcDbDictionary
281
     1
  3
Normal
350
F
100
AcDbDictionaryWithDefault
340
F
  0
DICTIONARY
  5
10C
102
{ACAD_REACTORS
330
C
102
}
330
C
100
AcDbDictionary
281
     1
  3
A0
350
10D
  3
A1
350
1BE
  3
A2
350
1BF
  3
A3
350
1C0
  3
A4
350
1C1
  3
A5
350
1C2
  3
A6
350
1C3
  3
A7
350
1C4
  3
A8
350
1C5
  3
A9
350
1C6
  3
B0
350
1C7
  3
B1
350
1C8
  3
B2
350
1C9
  3
B3
350
1CA
  3
B4
350
1CB
  3
B5
350
1CC
  3
B6
350
1CD
  0
DICTIONARY
  5
219
102
{ACAD_REACTORS
330
C
102
}
330
C
100
AcDbDictionary
281
     1
  3
Metric50
350
21A
  0
DICTIONARY
  5
7E
102
{ACAD_REACTORS
330
C
102
}
330
C
100
AcDbDictionary
281
     1
  3
Standard
350
7F
  0
DICTIONARY
  5
EF
102
{ACAD_REACTORS
330
C
102
}
330
C
100
AcDbDictionary
281
     1
  3
2dWireframe
350
F5
  3
Basic
350
F4
  3
Brighten
350
FB
  3
ColorChange
350
FF
  3
Conceptual
350
F8
  3
Dim
350
FA
  3
EdgeColorOff
350
1E6
  3
Facepattern
350
FE
  3
Flat
350
F0
  3
FlatWithEdges
350
F1
  3
Gouraud
350
F2
  3
GouraudWithEdges
350
F3
  3
Hidden
350
F7
  3
JitterOff
350
1E4
  3
Linepattern
350
FD
  3
OverhangOff
350
1E5
  3
Realistic
350
F9
  3
Shaded
350
1F3
  3
Shaded with edges
350
1F2
  3
Shades of Gray
350
1EF
  3
Sketchy
350
1F0
  3
Thicken
350
FC
  3
Wireframe
350
F6
  3
X-Ray
350
1F1
  0
XRECORD
  5
5E5
102
{ACAD_REACTORS
330
C
102
}
330
C
100
AcDbXrecord
280
     1
 90
        1
330
7F
  0
DICTIONARY
  5
5E
102
{ACAD_REACTORS
330
C
102
}
330
C
100
AcDbDictionary
281
     1
  3
CANNOSCALE
350
146
  3
CMLEADERSTYLE
350
145
  3
CTABLESTYLE
350
84
  3
CVIEWDETAILSTYLE
350
227
  3
CVIEWSECTIONSTYLE
350
228
  3
DIMASSOC
350
5F
  3
HIDETEXT
350
63
  3
LAYEREVAL
350
1AE
  3
LAYERNOTIFY
350
1AF
  3
LIGHTINGUNITS
350
362
  3
MSLTSCALE
350
361
  3
PSOLHEIGHT
350
5E2
  3
PSOLWIDTH
350
5E1
  3
XCLIPFRAME
350
5E3
  0
DICTIONARY
  5
5EB
102
{ACAD_REACTORS
330
C
102
}
330
C
100
AcDbDictionary
281
     1
  3
AcDsRecords
350
5ED
  3
AcDsSchemas
350
5EC
1001
ACAD
1070
     2
  0
DICTIONARY
  5
200
102
{ACAD_REACTORS
330
1FF
102
}
330
1FF
100
AcDbDictionary
281
     1
  0
ACDBDETAILVIEWSTYLE
  5
21C
102
{ACAD_XDICTIONARY
360
477
102
}
102
{ACAD_REACTORS
330
21B
102
}
330
21B
100
AcDbModelDocViewStyle
 70
     0
  3
Metric50
290
     0
100
AcDbDetailViewStyle
 70
     0
 71
     0
 90
        3
 71
     1
340
11
 62
   256
 40
5.0
340
0
 62
   256
 40
5.0
300

 40
0.0
280
     1
 71
     2
340
16
 90
       25
 62
   256
 71
     3
340
11
 62
   256
 40
5.0
 90
        0
 40
15.0
 90
        1
300
%<\AcVar ViewDetailId>% (%<\AcVar ViewScale \f "%sn">%)
 71
     4
340
16
 90
       25
 62
   256
340
16
 90
       25
 62
   256
280
     0
  0
LAYOUT
  5
22
102
{ACAD_XDICTIONARY
360
205
102
}
102
{ACAD_REACTORS
330
1A
102
}
330
1A
100
AcDbPlotSettings
  1

  2
none_device
  4
ISO_A4_(210.00_x_297.00_MM)
  6

 40
7.5
 41
20.0
 42
7.5
 43
20.0
 44
210.0
 45
297.0
 46
11.54999923706054
 47
-13.65000009536743
 48
0.0
 49
0.0
140
0.0
141
0.0
142
1.0
143
8.704084754739808
 70
 11952
 72
     1
 73
     0
 74
     0
  7

 75
     0
147
0.1148885871608098
 76
     0
 77
     2
 78
   300
148
0.0
149
0.0
100
AcDbLayout
  1
Model
 70
     1
 71
     0
 10
0.0
 20
0.0
 11
12.0
 21
9.0
 12
0.0
 22
0.0
 32
0.0
 14
0.0
 24
0.0
 34
0.0
 15
0.0
 25
0.0
 35
0.0
146
0.0
 13
0.0
 23
0.0
 33
0.0
 16
1.0
 26
0.0
 36
0.0
 17
0.0
 27
1.0
 37
0.0
 76
     0
330
1F
331
EA
1001
ACAD_PSEXT
1000
None
1000
None
1000
Not applicable
1000
The layout will not be plotted unless a new plotter configuration name is selected.
1070
     0
  0
LAYOUT
  5
D3
102
{ACAD_REACTORS
330
1A
102
}
330
1A
100
AcDbPlotSettings
  1

  2
C:\Documents and Settings\basas\Application Data\Autodesk\AutoCAD 2005\R16.1\enu\plotters\Default Windows System Printer.pc3
  4

  6

 40
0.0
 41
0.0
 42
0.0
 43
0.0
 44
0.0
 45
0.0
 46
0.0
 47
0.0
 48
0.0
 49
0.0
140
0.0
141
0.0
142
1.0
143
1.0
 70
   688
 72
     0
 73
     0
 74
     5
  7

 75
    16
147
1.0
 76
     0
 77
     2
 78
   300
148
0.0
149
0.0
100
AcDbLayout
  1
Presentación1
 70
     1
 71
     1
 10
0.0
 20
0.0
 11
12.0
 21
9.0
 12
0.0
 22
0.0
 32
0.0
 14
0.0
 24
0.0
 34
0.0
 15
0.0
 25
0.0
 35
0.0
146
0.0
 13
0.0
 23
0.0
 33
0.0
 16
1.0
 26
0.0
 36
0.0
 17
0.0
 27
1.0
 37
0.0
 76
     0
330
D2
  0
LAYOUT
  5
D7
102
{ACAD_REACTORS
330
1A
102
}
330
1A
100
AcDbPlotSettings
  1

  2
C:\Documents and Settings\basas\Application Data\Autodesk\AutoCAD 2005\R16.1\enu\plotters\Default Windows System Printer.pc3
  4

  6

 40
0.0
 41
0.0
 42
0.0
 43
0.0
 44
0.0
 45
0.0
 46
0.0
 47
0.0
 48
0.0
 49
0.0
140
0.0
141
0.0
142
1.0
143
1.0
 70
   688
 72
     0
 73
     0
 74
     5
  7

 75
    16
147
1.0
 76
     0
 77
     2
 78
   300
148
0.0
149
0.0
100
AcDbLayout
  1
Presentación2
 70
     1
 71
     2
 10
0.0
 20
0.0
 11
12.0
 21
9.0
 12
0.0
 22
0.0
 32
0.0
 14
0.0
 24
0.0
 34
0.0
 15
0.0
 25
0.0
 35
0.0
146
0.0
 13
0.0
 23
0.0
 33
0.0
 16
1.0
 26
0.0
 36
0.0
 17
0.0
 27
1.0
 37
0.0
 76
     0
330
D6
  0
MATERIAL
  5
ED
102
{ACAD_XDICTIONARY
360
1F9
102
}
102
{ACAD_REACTORS
330
6A
102
}
330
6A
100
AcDbMaterial
  1
ByBlock
  0
MATERIAL
  5
EC
102
{ACAD_XDICTIONARY
360
1F7
102
}
102
{ACAD_REACTORS
330
6A
102
}
330
6A
100
AcDbMaterial
  1
ByLayer
  0
MATERIAL
  5
EE
102
{ACAD_XDICTIONARY
360
173
102
}
102
{ACAD_REACTORS
330
6A
102
}
330
6A
100
AcDbMaterial
  1
Global
 43
0.0007999999797903
 43
0.0
 43
0.0
 43
0.0
 43
0.0
 43
0.0007999999797903
 43
0.0
 43
0.0
 43
0.0
 43
0.0
 43
1.0
 43
0.0
 43
0.0
 43
0.0
 43
0.0
 43
1.0
 49
0.0007999999797903
 49
0.0
 49
0.0
 49
0.0
 49
0.0
 49
0.0007999999797903
 49
0.0
 49
0.0
 49
0.0
 49
0.0
 49
1.0
 49
0.0
 49
0.0
 49
0.0
 49
0.0
 49
1.0
142
0.0007999999797903
142
0.0
142
0.0
142
0.0
142
0.0
142
0.0007999999797903
142
0.0
142
0.0
142
0.0
142
0.0
142
1.0
142
0.0
142
0.0
142
0.0
142
0.0
142
1.0
144
0.0007999999797903
144
0.0
144
0.0
144
0.0
144
0.0
144
0.0007999999797903
144
0.0
144
0.0
144
0.0
144
0.0
144
1.0
144
0.0
144
0.0
144
0.0
144
0.0
144
1.0
1001
ACAD
1070
    -1
1070
     3
1070
     0
1000

1071
        0
1070
     0
  0
MLEADERSTYLE
  5
13B
102
{ACAD_REACTORS
330
12D
102
}
330
12D
100
AcDbMLeaderStyle
170
     2
171
     1
172
     0
 90
        2
 40
0.0
 41
0.0
173
     1
 91
-1056964608
340
14
 92
       -2
290
     1
 42
2.0
291
     1
 43
8.0
  3
Standard
 44
4.0
300

342
11
174
     1
178
     1
175
     1
176
     0
 93
-1056964608
 45
4.0
292
     0
297
     0
 46
4.0
 94
-1056964608
 47
1.0
 49
1.0
140
1.0
293
     1
141
0.0
294
     1
177
     0
142
1.0
295
     0
296
     1
143
3.75
1001
ACAD_MLEADERVER
1070
     2
  0
MLEADERSTYLE
  5
12E
102
{ACAD_REACTORS
330
12D
102
}
330
12D
100
AcDbMLeaderStyle
170
     2
171
     1
172
     0
 90
        2
 40
0.0
 41
0.0
173
     1
 91
-1056964608
340
14
 92
       -2
290
     1
 42
2.0
291
     1
 43
8.0
  3
Standard
 44
4.0
300

342
11
174
     1
178
     1
175
     1
176
     0
 93
-1056964608
 45
4.0
292
     0
297
     0
 46
4.0
 94
-1056964608
 47
1.0
 49
1.0
140
1.0
293
     1
141
0.0
294
     1
177
     0
142
1.0
295
     0
296
     0
143
3.75
1001
ACAD_MLEADERVER
1070
     2
  0
MLINESTYLE
  5
18
102
{ACAD_REACTORS
330
17
102
}
330
17
100
AcDbMlineStyle
  2
STANDARD
 70
     0
  3

 62
   256
 51
90.0
 52
90.0
 71
     2
 49
0.5
 62
   256
  6
BYLAYER
 49
-0.5
 62
   256
  6
BYLAYER
  0
ACDBPLACEHOLDER
  5
F
102
{ACAD_REACTORS
330
E
102
}
330
E
  0
SCALE
  5
10D
102
{ACAD_REACTORS
330
10C
102
}
330
10C
100
AcDbScale
 70
     0
300
1:1
140
1.0
141
1.0
290
     1
  0
SCALE
  5
1BE
102
{ACAD_REACTORS
330
10C
102
}
330
10C
100
AcDbScale
 70
     0
300
1:2
140
1.0
141
2.0
290
     0
  0
SCALE
  5
1BF
102
{ACAD_REACTORS
330
10C
102
}
330
10C
100
AcDbScale
 70
     0
300
1:4
140
1.0
141
4.0
290
     0
  0
SCALE
  5
1C0
102
{ACAD_REACTORS
330
10C
102
}
330
10C
100
AcDbScale
 70
     0
300
1:5
140
1.0
141
5.0
290
     0
  0
SCALE
  5
1C1
102
{ACAD_REACTORS
330
10C
102
}
330
10C
100
AcDbScale
 70
     0
300
1:8
140
1.0
141
8.0
290
     0
  0
SCALE
  5
1C2
102
{ACAD_REACTORS
330
10C
102
}
330
10C
100
AcDbScale
 70
     0
300
1:10
140
1.0
141
10.0
290
     0
  0
SCALE
  5
1C3
102
{ACAD_REACTORS
330
10C
102
}
330
10C
100
AcDbScale
 70
     0
300
1:16
140
1.0
141
16.0
290
     0
  0
SCALE
  5
1C4
102
{ACAD_REACTORS
330
10C
102
}
330
10C
100
AcDbScale
 70
     0
300
1:20
140
1.0
141
20.0
290
     0
  0
SCALE
  5
1C5
102
{ACAD_REACTORS
330
10C
102
}
330
10C
100
AcDbScale
 70
     0
300
1:30
140
1.0
141
30.0
290
     0
  0
SCALE
  5
1C6
102
{ACAD_REACTORS
330
10C
102
}
330
10C
100
AcDbScale
 70
     0
300
1:40
140
1.0
141
40.0
290
     0
  0
SCALE
  5
1C7
102
{ACAD_REACTORS
330
10C
102
}
330
10C
100
AcDbScale
 70
     0
300
1:50
140
1.0
141
50.0
290
     0
  0
SCALE
  5
1C8
102
{ACAD_REACTORS
330
10C
102
}
330
10C
100
AcDbScale
 70
     0
300
1:100
140
1.0
141
100.0
290
     0
  0
SCALE
  5
1C9
102
{ACAD_REACTORS
330
10C
102
}
330
10C
100
AcDbScale
 70
     0
300
2:1
140
2.0
141
1.0
290
     0
  0
SCALE
  5
1CA
102
{ACAD_REACTORS
330
10C
102
}
330
10C
100
AcDbScale
 70
     0
300
4:1
140
4.0
141
1.0
290
     0
  0
SCALE
  5
1CB
102
{ACAD_REACTORS
330
10C
102
}
330
10C
100
AcDbScale
 70
     0
300
8:1
140
8.0
141
1.0
290
     0
  0
SCALE
  5
1CC
102
{ACAD_REACTORS
330
10C
102
}
330
10C
100
AcDbScale
 70
     0
300
10:1
140
10.0
141
1.0
290
     0
  0
SCALE
  5
1CD
102
{ACAD_REACTORS
330
10C
102
}
330
10C
100
AcDbScale
 70
     0
300
100:1
140
100.0
141
1.0
290
     0
  0
ACDBSECTIONVIEWSTYLE
  5
21A
102
{ACAD_XDICTIONARY
360
475
102
}
102
{ACAD_REACTORS
330
219
102
}
330
219
100
AcDbModelDocViewStyle
 70
     0
  3
Metric50
290
     0
100
AcDbSectionViewStyle
 70
     0
 71
     0
 90
      102
 71
     1
340
11
 62
   256
 40
5.0
340
0
340
0
 62
   256
 40
5.0
300
I, O, Q, S, X, Z
 40
10.0
 90
        0
 40
2.5
 90
        0
 71
     2
340
16
 90
       25
 62
   256
340
16
 90
       50
 62
   256
 40
5.0
 40
2.5
 40
5.0
 71
     3
340
11
 62
   256
 40
5.0
 90
        0
 40
15.0
 90
        1
300
%<\AcVar ViewSectionStartId>%-%<\AcVar ViewSectionEndId>% (%<\AcVar ViewScale \f "%sn">%)
 71
     4
 62
   256
 62
   257
300
ANSI31
 40
1.0
 90
        0
290
     0
290
     0
 90
        6
 40
0.0
 40
1.570796326794896
 40
0.2617993877991494
 40
1.308996938995747
 40
-0.2617993877991494
 40
1.832595714594045
  0
TABLESTYLE
  5
7F
102
{ACAD_XDICTIONARY
360
162
102
}
102
{ACAD_REACTORS
330
7E
102
}
330
7E
100
AcDbTableStyle
  3
Standard
 70
     0
 71
     0
 40
1.5
 41
1.5
280
     0
281
     0
  7
Standard
140
4.5
170
     2
 62
     0
 63
     7
283
     0
274
    -2
284
     1
 64
     0
275
    -2
285
     1
 65
     0
276
    -2
286
     1
 66
     0
277
    -2
287
     1
 67
     0
278
    -2
288
     1
 68
     0
279
    -2
289
     1
 69
     0
  7
Standard
140
6.0
170
     5
 62
     0
 63
     7
283
     0
274
    -2
284
     1
 64
     0
275
    -2
285
     1
 65
     0
276
    -2
286
     1
 66
     0
277
    -2
287
     1
 67
     0
278
    -2
288
     1
 68
     0
279
    -2
289
     1
 69
     0
  7
Standard
140
4.5
170
     5
 62
     0
 63
     7
283
     0
274
    -2
284
     1
 64
     0
275
    -2
285
     1
 65
     0
276
    -2
286
     1
 66
     0
277
    -2
287
     1
 67
     0
278
    -2
288
     1
 68
     0
279
    -2
289
     1
 69
     0
  0
VISUALSTYLE
  5
F5
102
{ACAD_XDICTIONARY
360
5F9
102
}
102
{ACAD_REACTORS
330
EF
102
}
330
EF
100
AcDbVisualStyle
  2

 70
     4
 71
     0
 72
     2
 73
     1
 90
        0
 40
-0.6
 41
-30.0
 62
     5
 63
     7
421
 16777215
 74
     1
 91
        4
 64
     7
 65
   257
 75
     1
175
     1
 42
1.0
 92
        0
 66
   257
 43
1.0
 76
     1
 77
     6
 78
     2
 67
     7
 79
     5
170
     0
171
     0
290
     0
174
     0
 93
        1
 44
0.0
173
     0
291
     0
 45
0.0
1001
ACAD
1000
AcDbSavedByObjectVersion
1070
     0
  0
VISUALSTYLE
  5
F4
102
{ACAD_XDICTIONARY
360
5F7
102
}
102
{ACAD_REACTORS
330
EF
102
}
330
EF
100
AcDbVisualStyle
  2

 70
     7
 71
     1
 72
     0
 73
     1
 90
        0
 40
-0.6
 41
-30.0
 62
     5
 63
     7
421
 16777215
 74
     0
 91
        4
 64
     7
 65
   257
 75
     1
175
     1
 42
1.0
 92
        8
 66
     7
 43
1.0
 76
     1
 77
     6
 78
     2
 67
     7
 79
     5
170
     0
171
     0
290
     0
174
     0
 93
        1
 44
0.0
173
     0
291
     1
 45
0.0
1001
ACAD
1000
AcDbSavedByObjectVersion
1070
     0
  0
VISUALSTYLE
  5
FB
102
{ACAD_XDICTIONARY
360
605
102
}
102
{ACAD_REACTORS
330
EF
102
}
330
EF
100
AcDbVisualStyle
  2

 70
    12
 71
     2
 72
     2
 73
     1
 90
        0
 40
-0.6
 41
-30.0
 62
     5
 63
     7
421
 16777215
 74
     1
 91
        4
 64
     7
 65
   257
 75
     1
175
     1
 42
1.0
 92
        8
 66
     7
 43
1.0
 76
     1
 77
     6
 78
     2
 67
     7
 79
     5
170
     0
171
     0
290
     0
174
     0
 93
        1
 44
50.0
173
     0
291
     1
 45
0.0
1001
ACAD
1000
AcDbSavedByObjectVersion
1070
     0
  0
VISUALSTYLE
  5
FF
102
{ACAD_XDICTIONARY
360
60D
102
}
102
{ACAD_REACTORS
330
EF
102
}
330
EF
100
AcDbVisualStyle
  2

 70
    16
 71
     2
 72
     2
 73
     3
 90
        0
 40
-0.6
 41
-30.0
 62
     5
 63
     8
421
  8421504
 74
     1
 91
        4
 64
     7
 65
   257
 75
     1
175
     1
 42
1.0
 92
        8
 66
     8
424
  8421504
 43
1.0
 76
     1
 77
     6
 78
     2
 67
     7
 79
     5
170
     0
171
     0
290
     0
174
     0
 93
        1
 44
0.0
173
     0
291
     1
 45
0.0
1001
ACAD
1000
AcDbSavedByObjectVersion
1070
     0
  0
VISUALSTYLE
  5
F8
102
{ACAD_XDICTIONARY
360
5FF
102
}
102
{ACAD_REACTORS
330
EF
102
}
330
EF
100
AcDbVisualStyle
  2

 70
     9
 71
     3
 72
     2
 73
     1
 90
        0
 40
-0.6
 41
-30.0
 62
     5
 63
     7
421
 16777215
 74
     2
 91
        2
 64
     7
 65
   257
 75
     1
175
     1
 42
40.0
 92
        8
 66
     7
 43
1.0
 76
     1
 77
     6
 78
     2
 67
     7
 79
     3
170
     0
171
     0
290
     0
174
     0
 93
        1
 44
0.0
173
     0
291
     0
 45
0.0
1001
ACAD
1000
AcDbSavedByObjectVersion
1070
     0
  0
VISUALSTYLE
  5
FA
102
{ACAD_XDICTIONARY
360
603
102
}
102
{ACAD_REACTORS
330
EF
102
}
330
EF
100
AcDbVisualStyle
  2

 70
    11
 71
     2
 72
     2
 73
     1
 90
        0
 40
-0.6
 41
-30.0
 62
     5
 63
     7
421
 16777215
 74
     1
 91
        4
 64
     7
 65
   257
 75
     1
175
     1
 42
1.0
 92
        8
 66
     7
 43
1.0
 76
     1
 77
     6
 78
     2
 67
     7
 79
     5
170
     0
171
     0
290
     0
174
     0
 93
        1
 44
-50.0
173
     0
291
     1
 45
0.0
1001
ACAD
1000
AcDbSavedByObjectVersion
1070
     0
  0
VISUALSTYLE
  5
1E6
102
{ACAD_XDICTIONARY
360
613
102
}
102
{ACAD_REACTORS
330
EF
102
}
330
EF
100
AcDbVisualStyle
  2

 70
    22
 71
     2
 72
     2
 73
     0
 90
        0
 40
-0.6
 41
-30.0
 62
     5
 63
     7
421
 16777215
 74
     1
 91
        4
 64
     7
 65
   257
 75
     1
175
     1
 42
1.0
 92
        8
 66
     7
 43
1.0
 76
     1
 77
     6
 78
     2
 67
     7
 79
     5
170
     0
171
     0
290
     0
174
     0
 93
        1
 44
0.0
173
     0
291
     1
 45
0.0
1001
ACAD
1000
AcDbSavedByObjectVersion
1070
     0
  0
VISUALSTYLE
  5
FE
102
{ACAD_XDICTIONARY
360
60B
102
}
102
{ACAD_REACTORS
330
EF
102
}
330
EF
100
AcDbVisualStyle
  2

 70
    15
 71
     2
 72
     2
 73
     1
 90
        0
 40
-0.6
 41
-30.0
 62
     5
 63
     7
421
 16777215
 74
     1
 91
        4
 64
     7
 65
   257
 75
     1
175
     1
 42
1.0
 92
        8
 66
     7
 43
1.0
 76
     1
 77
     6
 78
     2
 67
     7
 79
     5
170
     0
171
     0
290
     0
174
     0
 93
        1
 44
0.0
173
     0
291
     1
 45
0.0
1001
ACAD
1000
AcDbSavedByObjectVersion
1070
     0
  0
VISUALSTYLE
  5
F0
102
{ACAD_XDICTIONARY
360
5EF
102
}
102
{ACAD_REACTORS
330
EF
102
}
330
EF
100
AcDbVisualStyle
  2

 70
     0
 71
     2
 72
     1
 73
     1
 90
        2
 40
-0.6
 41
30.0
 62
     5
 63
     7
421
 16777215
 74
     0
 91
        0
 64
     7
 65
   257
 75
     1
175
     1
 42
1.0
 92
        8
 66
     7
 43
1.0
 76
     1
 77
     6
 78
     2
 67
     7
 79
     5
170
     0
171
     0
290
     0
174
     0
 93
       13
 44
0.0
173
     0
291
     1
 45
0.0
1001
ACAD
1000
AcDbSavedByObjectVersion
1070
     0
  0
VISUALSTYLE
  5
F1
102
{ACAD_XDICTIONARY
360
5F1
102
}
102
{ACAD_REACTORS
330
EF
102
}
330
EF
100
AcDbVisualStyle
  2

 70
     1
 71
     2
 72
     1
 73
     1
 90
        2
 40
-0.6
 41
30.0
 62
     5
 63
     7
421
 16777215
 74
     1
 91
        0
 64
     7
 65
   257
 75
     1
175
     1
 42
1.0
 92
        0
 66
   257
 43
1.0
 76
     1
 77
     6
 78
     2
 67
     7
 79
     5
170
     0
171
     0
290
     0
174
     0
 93
       13
 44
0.0
173
     0
291
     1
 45
0.0
1001
ACAD
1000
AcDbSavedByObjectVersion
1070
     0
  0
VISUALSTYLE
  5
F2
102
{ACAD_XDICTIONARY
360
5F3
102
}
102
{ACAD_REACTORS
330
EF
102
}
330
EF
100
AcDbVisualStyle
  2

 70
     2
 71
     2
 72
     2
 73
     1
 90
        2
 40
-0.6
 41
30.0
 62
     5
 63
     7
421
 16777215
 74
     0
 91
        0
 64
     7
 65
   257
 75
     1
175
     1
 42
1.0
 92
        0
 66
     7
 43
1.0
 76
     1
 77
     6
 78
     2
 67
     7
 79
     5
170
     0
171
     0
290
     0
174
     0
 93
       13
 44
0.0
173
     0
291
     1
 45
0.0
1001
ACAD
1000
AcDbSavedByObjectVersion
1070
     0
  0
VISUALSTYLE
  5
F3
102
{ACAD_XDICTIONARY
360
5F5
102
}
102
{ACAD_REACTORS
330
EF
102
}
330
EF
100
AcDbVisualStyle
  2

 70
     3
 71
     2
 72
     2
 73
     1
 90
        2
 40
-0.6
 41
30.0
 62
     5
 63
     7
421
 16777215
 74
     1
 91
        0
 64
     7
 65
   257
 75
     1
175
     1
 42
1.0
 92
        0
 66
   257
 43
1.0
 76
     1
 77
     6
 78
     2
 67
     7
 79
     5
170
     0
171
     0
290
     0
174
     0
 93
       13
 44
0.0
173
     0
291
     1
 45
0.0
1001
ACAD
1000
AcDbSavedByObjectVersion
1070
     0
  0
VISUALSTYLE
  5
F7
102
{ACAD_XDICTIONARY
360
5FD
102
}
102
{ACAD_REACTORS
330
EF
102
}
330
EF
100
AcDbVisualStyle
  2

 70
     6
 71
     1
 72
     2
 73
     2
 90
        0
 40
-0.6
 41
-30.0
 62
     5
 63
     7
421
 16777215
 74
     2
 91
        2
 64
     7
 65
   257
 75
     2
175
     1
 42
40.0
 92
        0
 66
   257
 43
1.0
 76
     1
 77
     6
 78
     2
 67
     7
 79
     3
170
     0
171
     0
290
     0
174
     0
 93
        1
 44
0.0
173
     0
291
     0
 45
0.0
1001
ACAD
1000
AcDbSavedByObjectVersion
1070
     0
  0
VISUALSTYLE
  5
1E4
102
{ACAD_XDICTIONARY
360
60F
102
}
102
{ACAD_REACTORS
330
EF
102
}
330
EF
100
AcDbVisualStyle
  2

 70
    20
 71
     2
 72
     2
 73
     0
 90
        0
 40
-0.6
 41
-30.0
 62
     5
 63
     7
421
 16777215
 74
     1
 91
        4
 64
     7
 65
   257
 75
     1
175
     1
 42
1.0
 92
       10
 66
     7
 43
1.0
 76
     1
 77
     6
 78
     2
 67
     7
 79
     5
170
     0
171
     0
290
     0
174
     0
 93
        1
 44
0.0
173
     0
291
     1
 45
0.0
1001
ACAD
1000
AcDbSavedByObjectVersion
1070
     0
  0
VISUALSTYLE
  5
FD
102
{ACAD_XDICTIONARY
360
609
102
}
102
{ACAD_REACTORS
330
EF
102
}
330
EF
100
AcDbVisualStyle
  2

 70
    14
 71
     2
 72
     2
 73
     1
 90
        0
 40
-0.6
 41
-30.0
 62
     5
 63
     7
421
 16777215
 74
     1
 91
        4
 64
     7
 65
   257
 75
     7
175
     7
 42
1.0
 92
        8
 66
     7
 43
1.0
 76
     1
 77
     6
 78
     2
 67
     7
 79
     5
170
     0
171
     0
290
     0
174
     0
 93
        1
 44
0.0
173
     0
291
     1
 45
0.0
1001
ACAD
1000
AcDbSavedByObjectVersion
1070
     0
  0
VISUALSTYLE
  5
1E5
102
{ACAD_XDICTIONARY
360
611
102
}
102
{ACAD_REACTORS
330
EF
102
}
330
EF
100
AcDbVisualStyle
  2

 70
    21
 71
     2
 72
     2
 73
     0
 90
        0
 40
-0.6
 41
-30.0
 62
     5
 63
     7
421
 16777215
 74
     1
 91
        4
 64
     7
 65
   257
 75
     1
175
     1
 42
1.0
 92
        9
 66
     7
 43
1.0
 76
     1
 77
     6
 78
     2
 67
     7
 79
     5
170
     0
171
     0
290
     0
174
     0
 93
        1
 44
0.0
173
     0
291
     1
 45
0.0
1001
ACAD
1000
AcDbSavedByObjectVersion
1070
     0
  0
VISUALSTYLE
  5
F9
102
{ACAD_XDICTIONARY
360
601
102
}
102
{ACAD_REACTORS
330
EF
102
}
330
EF
100
AcDbVisualStyle
  2

 70
     8
 71
     2
 72
     3
 73
     0
 90
        2
 40
-0.6
 41
30.0
 62
     5
 63
     7
421
 16777215
 74
     0
 91
        0
 64
     7
 65
   257
 75
     1
175
     1
 42
1.0
 92
        8
 66
   257
 43
1.0
 76
     1
 77
     6
 78
     2
 67
     7
 79
     3
170
     0
171
     0
290
     0
174
     0
 93
       13
 44
0.0
173
     0
291
     0
 45
0.0
1001
ACAD
1000
AcDbSavedByObjectVersion
1070
     0
  0
VISUALSTYLE
  5
1F3
102
{ACAD_XDICTIONARY
360
61D
102
}
102
{ACAD_REACTORS
330
EF
102
}
330
EF
100
AcDbVisualStyle
  2

 70
    27
 71
     2
 72
     2
 73
     1
 90
        2
 40
-0.6
 41
30.0
 62
     5
 63
     7
421
 16777215
 74
     0
 91
        4
 64
     7
 65
   257
 75
     1
175
     1
 42
1.0
 92
        8
 66
   257
 43
1.0
 76
     1
 77
     6
 78
     2
 67
     8
425
  7895160
 79
     3
170
     0
171
     0
290
     0
174
     0
 93
        5
 44
0.0
173
     0
291
     0
 45
0.0
1001
ACAD
1000
AcDbSavedByObjectVersion
1070
     0
  0
VISUALSTYLE
  5
1F2
102
{ACAD_XDICTIONARY
360
61B
102
}
102
{ACAD_REACTORS
330
EF
102
}
330
EF
100
AcDbVisualStyle
  2

 70
    26
 71
     2
 72
     2
 73
     1
 90
        2
 40
-0.6
 41
30.0
 62
     5
 63
     7
421
 16777215
 74
     1
 91
       10
 64
     7
 65
   257
 75
     2
175
     1
 42
1.0
 92
        8
 66
   257
 43
1.0
 76
     1
 77
     6
 78
     2
 67
     7
 79
     3
170
     0
171
     0
290
     0
174
     0
 93
        5
 44
0.0
173
     0
291
     0
 45
0.0
1001
ACAD
1000
AcDbSavedByObjectVersion
1070
     0
  0
VISUALSTYLE
  5
1EF
102
{ACAD_XDICTIONARY
360
615
102
}
102
{ACAD_REACTORS
330
EF
102
}
330
EF
100
AcDbVisualStyle
  2

 70
    23
 71
     2
 72
     2
 73
     3
 90
        0
 40
-0.6
 41
-30.0
 62
     5
 63
     7
421
 16777215
 74
     2
 91
        2
 64
     7
 65
     7
 75
     1
175
     1
 42
40.0
 92
        8
 66
     7
 43
1.0
 76
     1
 77
     6
 78
     2
 67
     7
 79
     3
170
     0
171
     0
290
     0
174
     0
 93
        1
 44
0.0
173
     0
291
     0
 45
0.0
1001
ACAD
1000
AcDbSavedByObjectVersion
1070
     0
  0
VISUALSTYLE
  5
1F0
102
{ACAD_XDICTIONARY
360
617
102
}
102
{ACAD_REACTORS
330
EF
102
}
330
EF
100
AcDbVisualStyle
  2

 70
    24
 71
     1
 72
     2
 73
     2
 90
        0
 40
-0.6
 41
-30.0
 62
     5
 63
     7
421
 16777215
 74
     2
 91
        2
 64
     7
 65
     7
 75
     1
175
     1
 42
40.0
 92
       11
 66
     7
 43
1.0
 76
     1
 77
     6
 78
     2
 67
     7
 79
     6
170
     0
171
     0
290
     0
174
     0
 93
        1
 44
0.0
173
     0
291
     0
 45
0.0
1001
ACAD
1000
AcDbSavedByObjectVersion
1070
     0
  0
VISUALSTYLE
  5
FC
102
{ACAD_XDICTIONARY
360
607
102
}
102
{ACAD_REACTORS
330
EF
102
}
330
EF
100
AcDbVisualStyle
  2

 70
    13
 71
     2
 72
     2
 73
     1
 90
        0
 40
-0.6
 41
-30.0
 62
     5
 63
     7
421
 16777215
 74
     1
 91
        4
 64
     7
 65
   257
 75
     1
175
     1
 42
1.0
 92
       12
 66
     7
 43
1.0
 76
     1
 77
     6
 78
     2
 67
     7
 79
     5
170
     0
171
     0
290
     0
174
     0
 93
        1
 44
0.0
173
     0
291
     1
 45
0.0
1001
ACAD
1000
AcDbSavedByObjectVersion
1070
     0
  0
VISUALSTYLE
  5
F6
102
{ACAD_XDICTIONARY
360
5FB
102
}
102
{ACAD_REACTORS
330
EF
102
}
330
EF
100
AcDbVisualStyle
  2

 70
     5
 71
     0
 72
     2
 73
     0
 90
        0
 40
-0.6
 41
-30.0
 62
     5
 63
     7
421
 16777215
 74
     1
 91
        4
 64
     7
 65
   257
 75
     1
175
     1
 42
1.0
 92
        0
 66
   257
 43
1.0
 76
     1
 77
     6
 78
     2
 67
     7
 79
     3
170
     0
171
     0
290
     0
174
     0
 93
        1
 44
0.0
173
     0
291
     0
 45
0.0
1001
ACAD
1000
AcDbSavedByObjectVersion
1070
     0
  0
VISUALSTYLE
  5
1F1
102
{ACAD_XDICTIONARY
360
619
102
}
102
{ACAD_REACTORS
330
EF
102
}
330
EF
100
AcDbVisualStyle
  2

 70
    25
 71
     2
 72
     2
 73
     1
 90
        1
 40
0.5
 41
-30.0
 62
     5
 63
     7
421
 16777215
 74
     1
 91
        0
 64
     7
 65
   257
 75
     1
175
     1
 42
1.0
 92
        8
 66
     7
 43
1.0
 76
     1
 77
     6
 78
     2
 67
     7
 79
     3
170
     0
171
     0
290
     0
174
     0
 93
       13
 44
0.0
173
     0
291
     0
 45
0.0
1001
ACAD
1000
AcDbSavedByObjectVersion
1070
     0
  0
DICTIONARYVAR
  5
146
102
{ACAD_REACTORS
330
5E
102
}
330
5E
100
DictionaryVariables
280
     0
  1
1:1
  0
DICTIONARYVAR
  5
145
102
{ACAD_REACTORS
330
5E
102
}
330
5E
100
DictionaryVariables
280
     0
  1
STANDARD
  0
DICTIONARYVAR
  5
84
102
{ACAD_REACTORS
330
5E
102
}
330
5E
100
DictionaryVariables
280
     0
  1
STANDARD
  0
DICTIONARYVAR
  5
227
102
{ACAD_REACTORS
330
5E
102
}
330
5E
100
DictionaryVariables
280
     0
  1
Metric50
  0
DICTIONARYVAR
  5
228
102
{ACAD_REACTORS
330
5E
102
}
330
5E
100
DictionaryVariables
280
     0
  1
Metric50
  0
DICTIONARYVAR
  5
5F
102
{ACAD_REACTORS
330
5E
102
}
330
5E
100
DictionaryVariables
280
     0
  1
2
  0
DICTIONARYVAR
  5
63
102
{ACAD_REACTORS
330
5E
102
}
330
5E
100
DictionaryVariables
280
     0
  1
1
  0
DICTIONARYVAR
  5
1AE
102
{ACAD_REACTORS
330
5E
102
}
330
5E
100
DictionaryVariables
280
     0
  1
0
  0
DICTIONARYVAR
  5
1AF
102
{ACAD_REACTORS
330
5E
102
}
330
5E
100
DictionaryVariables
280
     0
  1
0
  0
DICTIONARYVAR
  5
362
102
{ACAD_REACTORS
330
5E
102
}
330
5E
100
DictionaryVariables
280
     0
  1
2
  0
DICTIONARYVAR
  5
361
102
{ACAD_REACTORS
330
5E
102
}
330
5E
100
DictionaryVariables
280
     0
  1
1
  0
DICTIONARYVAR
  5
5E2
102
{ACAD_REACTORS
330
5E
102
}
330
5E
100
DictionaryVariables
280
     0
  1
80.000000
  0
DICTIONARYVAR
  5
5E1
102
{ACAD_REACTORS
330
5E
102
}
330
5E
100
DictionaryVariables
280
     0
  1
5.000000
  0
DICTIONARYVAR
  5
5E3
102
{ACAD_REACTORS
330
5E
102
}
330
5E
100
DictionaryVariables
280
     0
  1
2
  0
DICTIONARY
  5
5ED
102
{ACAD_REACTORS
330
5EB
102
}
330
5EB
100
AcDbDictionary
281
     1
  0
DICTIONARY
  5
5EC
102
{ACAD_REACTORS
330
5EB
102
}
330
5EB
100
AcDbDictionary
281
     1
  3
8796087867232
350
5E6
  3
8796087867248
350
5E7
  3
8796087867392
350
5E8
  3
8796087867408
350
5E9
  3
8796087867424
350
5EA
  0
DICTIONARY
  5
477
330
21C
100
AcDbDictionary
280
     1
281
     1
  3
ACAD_XREC_ROUNDTRIP
360
620
  0
DICTIONARY
  5
205
330
22
100
AcDbDictionary
280
     1
281
     1
  0
DICTIONARY
  5
1F9
330
ED
100
AcDbDictionary
280
     1
281
     1
  3
ACAD_XREC_ROUNDTRIP
360
372
  3
FBXASSET
360
1FA
  0
DICTIONARY
  5
1F7
330
EC
100
AcDbDictionary
280
     1
281
     1
  3
ACAD_XREC_ROUNDTRIP
360
371
  3
FBXASSET
360
1F8
  0
DICTIONARY
  5
173
330
EE
100
AcDbDictionary
280
     1
281
     1
  3
ACAD_XREC_ROUNDTRIP
360
373
  3
BUMPTILE
360
175
  3
DIFFUSETILE
360
174
  3
FBXASSET
360
1FB
  3
OPACITYTILE
360
176
  3
REFLECTIONTILE
360
177
  0
DICTIONARY
  5
475
330
21A
100
AcDbDictionary
280
     1
281
     1
  3
ACAD_XREC_ROUNDTRIP
360
61F
  0
DICTIONARY
  5
162
330
7F
100
AcDbDictionary
280
     1
281
     1
  3
ACAD_ROUNDTRIP_2008_TABLESTYLE_CELLSTYLEMAP
360
5E4
  3
ACAD_XREC_ROUNDTRIP
360
5EE
  0
DICTIONARY
  5
5F9
330
F5
100
AcDbDictionary
280
     1
281
     1
  3
ACAD_XREC_ROUNDTRIP
360
5FA
  0
DICTIONARY
  5
5F7
330
F4
100
AcDbDictionary
280
     1
281
     1
  3
ACAD_XREC_ROUNDTRIP
360
5F8
  0
DICTIONARY
  5
605
330
FB
100
AcDbDictionary
280
     1
281
     1
  3
ACAD_XREC_ROUNDTRIP
360
606
  0
DICTIONARY
  5
60D
330
FF
100
AcDbDictionary
280
     1
281
     1
  3
ACAD_XREC_ROUNDTRIP
360
60E
  0
DICTIONARY
  5
5FF
330
F8
100
AcDbDictionary
280
     1
281
     1
  3
ACAD_XREC_ROUNDTRIP
360
600
  0
DICTIONARY
  5
603
330
FA
100
AcDbDictionary
280
     1
281
     1
  3
ACAD_XREC_ROUNDTRIP
360
604
  0
DICTIONARY
  5
613
330
1E6
100
AcDbDictionary
280
     1
281
     1
  3
ACAD_XREC_ROUNDTRIP
360
614
  0
DICTIONARY
  5
60B
330
FE
100
AcDbDictionary
280
     1
281
     1
  3
ACAD_XREC_ROUNDTRIP
360
60C
  0
DICTIONARY
  5
5EF
330
F0
100
AcDbDictionary
280
     1
281
     1
  3
ACAD_XREC_ROUNDTRIP
360
5F0
  0
DICTIONARY
  5
5F1
330
F1
100
AcDbDictionary
280
     1
281
     1
  3
ACAD_XREC_ROUNDTRIP
360
5F2
  0
DICTIONARY
  5
5F3
330
F2
100
AcDbDictionary
280
     1
281
     1
  3
ACAD_XREC_ROUNDTRIP
360
5F4
  0
DICTIONARY
  5
5F5
330
F3
100
AcDbDictionary
280
     1
281
     1
  3
ACAD_XREC_ROUNDTRIP
360
5F6
  0
DICTIONARY
  5
5FD
330
F7
100
AcDbDictionary
280
     1
281
     1
  3
ACAD_XREC_ROUNDTRIP
360
5FE
  0
DICTIONARY
  5
60F
330
1E4
100
AcDbDictionary
280
     1
281
     1
  3
ACAD_XREC_ROUNDTRIP
360
610
  0
DICTIONARY
  5
609
330
FD
100
AcDbDictionary
280
     1
281
     1
  3
ACAD_XREC_ROUNDTRIP
360
60A
  0
DICTIONARY
  5
611
330
1E5
100
AcDbDictionary
280
     1
281
     1
  3
ACAD_XREC_ROUNDTRIP
360
612
  0
DICTIONARY
  5
601
330
F9
100
AcDbDictionary
280
     1
281
     1
  3
ACAD_XREC_ROUNDTRIP
360
602
  0
DICTIONARY
  5
61D
330
1F3
100
AcDbDictionary
280
     1
281
     1
  3
ACAD_XREC_ROUNDTRIP
360
61E
  0
DICTIONARY
  5
61B
330
1F2
100
AcDbDictionary
280
     1
281
     1
  3
ACAD_XREC_ROUNDTRIP
360
61C
  0
DICTIONARY
  5
615
330
1EF
100
AcDbDictionary
280
     1
281
     1
  3
ACAD_XREC_ROUNDTRIP
360
616
  0
DICTIONARY
  5
617
330
1F0
100
AcDbDictionary
280
     1
281
     1
  3
ACAD_XREC_ROUNDTRIP
360
618
  0
DICTIONARY
  5
607
330
FC
100
AcDbDictionary
280
     1
281
     1
  3
ACAD_XREC_ROUNDTRIP
360
608
  0
DICTIONARY
  5
5FB
330
F6
100
AcDbDictionary
280
     1
281
     1
  3
ACAD_XREC_ROUNDTRIP
360
5FC
  0
DICTIONARY
  5
619
330
1F1
100
AcDbDictionary
280
     1
281
     1
  3
ACAD_XREC_ROUNDTRIP
360
61A
  0
XRECORD
  5
5E6
102
{ACAD_REACTORS
330
5EC
102
}
330
5EC
100
AcDbXrecord
280
     1
  1
AcDb_Thumbnail_Schema
102
{ATTRRECORD
341
5E7
  2
AcDbDs::TreatedAsObjectData
280
     1
291
     1
102
ATTRRECORD}
102
{ATTRRECORD
341
5E8
  2
AcDbDs::Legacy
280
     1
291
     1
102
ATTRRECORD}
  2
AcDbDs::ID
280
    10
 91
        8
102
{ATTRRECORD
341
5E9
  2
AcDs:Indexable
280
     1
291
     1
102
ATTRRECORD}
102
{ATTRRECORD
341
5EA
  2
AcDbDs::HandleAttribute
280
     7
282
     1
102
ATTRRECORD}
  2
Thumbnail_Data
280
    15
 91
        0
  0
XRECORD
  5
5E7
102
{ACAD_REACTORS
330
5EC
102
}
330
5EC
100
AcDbXrecord
280
     1
  1
AcDbDs::TreatedAsObjectDataSchema
  2
AcDbDs::TreatedAsObjectData
280
     1
 91
        0
  0
XRECORD
  5
5E8
102
{ACAD_REACTORS
330
5EC
102
}
330
5EC
100
AcDbXrecord
280
     1
  1
AcDbDs::LegacySchema
  2
AcDbDs::Legacy
280
     1
 91
        0
  0
XRECORD
  5
5E9
102
{ACAD_REACTORS
330
5EC
102
}
330
5EC
100
AcDbXrecord
280
     1
  1
AcDbDs::IndexedPropertySchema
  2
AcDs:Indexable
280
     1
 91
        0
  0
XRECORD
  5
5EA
102
{ACAD_REACTORS
330
5EC
102
}
330
5EC
100
AcDbXrecord
280
     1
  1
AcDbDs::HandleAttributeSchema
  2
AcDbDs::HandleAttribute
280
     7
 91
        1
284
     1
  0
XRECORD
  5
620
102
{ACAD_REACTORS
330
477
102
}
330
477
100
AcDbXrecord
280
     1
102
DISPLAYNAME
  1
Metric50
102
FLAGS
 90
        0
  0
XRECORD
  5
372
102
{ACAD_REACTORS
330
1F9
102
}
330
1F9
100
AcDbXrecord
280
     1
102
MATERIAL
148
0.0
149
0.0
149
0.0
 93
        0
 94
      127
282
     0
 72
     1
 77
     1
171
     1
175
     1
179
     1
273
     0
  0
XRECORD
  5
1FA
102
{ACAD_REACTORS
330
1F9
102
}
330
1F9
100
AcDbXrecord
280
     1
 70
     1
 90
429727718
  1
D62C5603-E3A1-4AEA-B7FB-FE5D8D0755AF
310
504B03040A0000080000CC70623B3DEE336E79000000790000001B0000006175746F6465736B2D64657369676E2D7061636B6167652E786D6C3C3F786D6C2076657273696F6E3D22312E302220656E636F64696E673D227574662D3822203F3E3C666F726D6174733E3C666F726D61743E687474703A2F2F736368656D612E
310
6175746F6465736B2E636F6D2F64657369676E2D7061636B6167652F323030393C2F666F726D61743E3C2F666F726D6174733E504B0304140006080800CC70623BD486FD9CA0000000F4000000130000005B436F6E74656E745F54797065735D2E786D6C7D8EC10E82300C865F65E91D8A1E8C310C0EEA1BF002731658846E
310
D98AC1B77784ABF1D8FE5FBFBF75BBCE937A534CCEB38643598122B6FEE978D0B0485F9C41B54DDD7D022595594E1A469170414C76A4D9A4D207E29CF43ECE46F218070CC6BECC4078ACAA135ACF422C856C0E68EA1BF5669944DDD7BCDE7B1F8E415D77AECB980613C2E4AC91FC167A2B244592486606FC29C8FD7F045B9A
310
EF7053A7E60B504B0304140006080800CC70623B853B8169EB0000007C01000008000000636F72652E786D6C8D90416EC3201045AF62CDB6C206821CC7C244919D9CA01740401C94182C03558F5F9C3852BBEB6A467FFE9B197D7EFC9E1EC5975982F5AE035262288C535E5B377690E21535501C055FBC8FBF6C503839990E
310
5619041F179FE64D52DE45E362569DD7661365082642A11EB9E920A89B99642953CC8E702F67A9EE7234257977194EC9EAE275C4EABCCF5EAD5940D4AC6F0E35A568B8F43562CD7046CD199FD07E60174276A7BE677B5EADB0E0D14EEFFB6A31321A0D82627C4084204C3F096B71DD52F6819B16635EADF63F509AF53FA164
310
5DDCD1EDDD17164090FCC8732078B56691CB33A85CD7DCC40F504B0304140006080800CC70623B55019EA25F0000007C00000007000000636E782E786D6C4DCB3B0E80201045D1AD90E915ED2CF8AC45050C11660C8261F98AB1B07AC9C97D42D718D865D3E909258CFD00CCE24AC6E326A164D74DC0B4128928FF32603847
310
2BA13128B1252AC747C6BAB984FC68F0B87FE8960A5C09FE86CFB69FBA01504B0304140006080800CC70623BDBABAAF470010000D40300000C0000006662782F636F72652E786D6CC553D16E823014FD95A6AF4B694182CC941A83FA05FB810A9511A125A5257EFE2E82712ECEB8A7F100CD39F7F69E734AF9FADC366850B6
310
AF8DCE7018308C942E4C59EB2AC3DE1D498AD15A706B8CFB56869196ADCAF00863C12B6B7C374385D14E6907A836A59A41D9F7CA615434B0C8705F7CAA5606D23BA8E84F41278B93AC54100640439DE0BDB320004D43C63716C7C399D30917DCFBBA9CD9BA8469F5B156168B24CED3F7248AC8769F27244EB73B92EED8862C
310
B7F13E0C179B3C8F979C8ECD82BBBABDAA2BAC924E9558448CBD9330242CFA08E3154B5651FCC6D215639C8EE5774DBE2B5F6CF2B5768B68963BB5F5588420E442FC700B1139D4CB01F450C1E918227C2E09DF070D8140C84E1E9AAB8F1340832A9CB13130A5F1376A908D57309505ECF2A0DF179C4E9D30F5B239B87E3823
310
7A79C6F31DE1A8A5AEC08474B03C7837EAE4938639B44E5932B833D2C6B6B279CDC613877FA26EE21F4A2A4C63EC7F29A2F301D1F9F7A0E37D145F504B0304140006080800CC70623B9C113CC27E0000009D0000000B0000006662782F636E782E786D6C4DCCDF0A83201C86E15B91DFB94BFB330DD428C8FB886521330DA7
310
6397BF1A1DECE883878F57749FCDA1B7892F1BBC047A23808C7F84D9FA55424E0BE6803A256208E9EF06C84F9B91703228B1C690F78B66B34CD9A5439DF5CF0BFBF65E35BCA1B8D6A5C6F540381E886698B5741C695F9503EBA150A2F8958E3DC3EA0B504B0304140006080800CC70623B7DF2F77C2A010000120200003100
310
00006662782F41393633353835312D344632462D344230382D423046372D3739314545314133324237412F636F72652E786D6C8D51DB8EC22014FC15C2939B0D2DB4B45643319AE817EC0F6041255A68B86CFCFC856D4D76DF7CE190393373060EDB3DC707F856CE6B6B7A480A0C81328395DA5C7B18C3057510EC3873D686
310
3F34088C18550F330C39BB3A1BA7051AAC09CA84841A2BD5020AEF55806078A44B0FFD7053A328440C89E1EFC52486BBB8AA8214A99D789CF9E05200300FC927E4FB4D5B375D43103D5527440FB843077C5AA3F5861C8F645F5787F59E95B390B318B55CE45AA638FAA2957BD7248B390B7A7CC51F9C124149C82B8C378810
310
84AB2F42B7B8DD56F413775B8C5999E9FF4471926F8AA236A1AE96B8B3CC434E5839373893369E1FAF30EA395917409EB7F26AF8801C171837A4A6AC9C89E9F9C9B1A58BA30FD6A5EF5DDDCF894B9AD9B6A59C957943A9FCAE2FD5BC4DFE03504B0304140006080800CC70623BAD7543B64E01000033030000300000006662
310
782F41393633353835312D344632462D344230382D423046372D3739314545314133324237412F636E782E786D6CD593CD6EC32010845F0571AD6CE3D48AD20813A9873E410FBD12D82434182C7EAAE6EDBB2424CD25871E7B41D6EC30B3FA84F9E67BB2E40B4234DE8DB46F1925E094D7C6ED479AD3AE5951B2113C789FEE
310
6C943839C1488B4C05DF079FE72A69D8C96C13AAD6B8631503449F83828872B949AC57D26200B826A308D316B4064D6E46FCDA41C05550DC9E483A00797BFD207EFB092A45DE9514C1BBD22178396BD39D891265658C238DEA00936C654E5E433CB65A26D9F6EDB5EBC14EBF49A45CB856E66048291F6939A9A81BB5C89177
310
38143CA680F4AA299D66A042CEB3354A2684DC9D8D178FE0D9B8B41CAAD720F880EE7EF93C0C18769E099ECC04D5A102C8049A8A05632F4DDF376CF1DE0F6BB65C2F8627B65A33C6BB62177CEBBDAD973006829F89F22E814B54F4BC2BE347F8AA8F681390B50FA73F804400B5F542E796F19FF974E7F78DB802FE05E20750
310
4B0304140006080800CC70623BE75B7789680500003C100000340000006662782F41393633353835312D344632462D344230382D423046372D3739314545314133324237412F6F626A656374732E786D6CAD575B8F9B3818FD2B887D06C22499CB8AA1CA655245D5B455A356FB305264C061D8018C6C3393D95FBFC7600890
310
A4CD5EF210B0B1BFEBF98E3F7B1FF6596ABC522E1296DF9BAE3D320D9A872C4AF2F8DE2CE5CEBA358D0FBEC719939D65A691938CDE9B6ADAF4BD98B3B2D05311DD91329583D9D5FC0F438434A7A611A644887B5384CF34233629258BA878B12322891DEFF6B66BD70BFB62634E8AE781D082709A4B588AF91C528CDA28B73F
310
1C998EEF39EABBEFA97FBD6A7C7E9553F9D3D79FE442923C3C523610337627CB87ABE99D359D4CC6D6E4FACAB5E6ABF9D2726FC6A3C5F56271377BB88362213924694B38DD99FE47C48627A1E7D49F5A8BB5E1A74C0A599ED3B0F21F1E56366B89112D681E218F0915D0D6F17AD41FBA2A369DCF6335D62ABBD39779D5DDD1
310
11D4D8DE3CBB96B2E04FB8202E41051754A1AA8E8F76B4C6DFE810B580B1547F4B84911149794252234D024EF8BBE963A95AE27B3D310A9D5C215C7960FAEE415ED75694C6AFB17BCACA5D99A60A9AA65F217B0BFC53292ACB92BF283FAD0D3621576592CB5BED907C2FA8E9DF794E35E97BEA31BED21FEB401ABB94C44839
310
DCACBF0E1C5DA8DA5B2F4DFFD32AD86F543D9E565E7056502E157C00AD2671CD534549AB752FCA9CDA00677A313F04E51B22FF19E57B300579E3C97EB29F682D92935CEC18CF901B7B54FD8C51F362B56FC72FE0B3C1EAE335EDCCBF5AEC39ADB17DC238973F804BA5E6F6BFE7AF1FB32E523BE9F3BD571418E3631DCA4D48
310
5250CF639223210A9446CA30052EDF057BD35F8329C1ECD84552BF0DC8D18BE7BCE23BFE6BD960AB4A7DE79923A103BEBD80F911CBAA2C60DB19B01CF164A5583B772EE6D3FFA56666CBCDA74DC97724A48F9A58967497E489C4D979006FD7A05E227A1EBDD0F737C623387A9C844D3709995625106D157315F8B8392CD4E0
310
A0B9A720C4BE9829CEF37EA1E13111214D53925356365ADA634861B52519DD27A00AEB808EAF0628E6F435519D446F45CF2C9CF5214F0A15B2F6D06B79DA3EE3CBF7F56780D2F4E7EF73A0F5E5B02A38D07DC852C6B7C1FBB6664213E0C39E3EBA7FF4E1AD23EA2829407C85E586727488B751B2DB9502BC7B228A3FD68B6E
310
A65A22397E690AA8D158D7E404EC8CDA235CC3B7D1898680131CEC2CDF2638C65196279577750F15884AEE19F94199155B92B13297978469D4F8D358DF0AEF7631E28DC8F0D9F437D5D39A83B2231A1D52D543813A824EF8D44BCFF2FA6A31BD1E8DAD87F1CCB526B3879935BF59CDADD5C37479BB1CDD4CA7B3556B516589
310
EF352754B706114D9C885EC9131DE6EFEB43D99AFE2391C2F958179413D7CFEF6B1B6DB1E7600F00DE6E5C67454A339A4BA2E0FBA85ED26F045D454F463DBFCE484C2F90F2E5E3666003662ED8F755951A7D1BECD5B30B550B2785C8E7320B7292A4838DDA71BBC863ED7613CAF659337A3354231D4FF4A182A54904C2898C
310
98B28C4AD0CE056CCF332A80986E571EE9DBC305BB5FEB7E509220A58D25CF042D712A806AC0AD0C657FDEF80D2D9CEAA2EE4D1C76F60BFE74219A06527D6F82DF6412526107381E55E353090704D085B52408A8913C4ED159D79BDA71BB4BC506F4831350EB6F975CD22D69BF7AC49B91A2C0A9DDA3D5CA36AD20FC478E37
310
E61844E2352865EBCB61A275A65283CAAA9DD27703B4102F5AF51EF5F573B75CBB5AD38BC845F7A49F82A0966A49C2E3EA5EA0ECD326CD965F1DB402C6FA8B51A4658C5C5E2EC9E214602E55810345408596591009A82E7E7FFACA19EEA299B14A0081A705CB3296EBC14CDF658DCD336EA6D1136881AAEB87B81AB9EE53D5
310
F5EB8BC8362082DA24122F98680A4E7930C01A0079749CEA14382A0783E5EBA5A10F8C098456A03D6A4AEB6BB881E2513747552A5DB22C7EDAF83BD5528081A365F7FF06504B0304140006080000CC70623B000000000000000000000000350000006662782F41393633353835312D344632462D344230382D423046372D37
310
39314545314133324237412F76657274696365732E62696E504B0304140006080800CC70623BF270F1330600000004000000360000006662782F41393633353835312D344632462D344230382D423046372D3739314545314133324237412F747269616E676C65732E62696E636660600000504B0304140006080000CC7062
310
3B000000000000000000000000370000006662782F41393633353835312D344632462D344230382D423046372D3739314545314133324237412F617474726962757465732E62696E504B0304140006080800CC70623B08DA0BD19000000041010000360000006662782F41393633353835312D344632462D344230382D4230
310
46372D3739314545314133324237412F6469726563746F72792E786D6C858F410AC3201045AF22B36F53E9A60B35CBEEBAE80D244E44489C6234F4F835464A48035D0DF398FF9F8AF63D0E6CC63039F212F8F9020C7D47C6792B21C5FE7403D62A1188E2E60C98D7234A5830286103A55745067B9D86B8A3CF9C7F90C11DE6
310
07FB144396D7B6A82D282E9A152AD114D5EF2CB866EEE831B8EEA07A7BB5A8D7D61A2BAAEB7FD5F70921FF497D00504B0304140006080800CC70623BEDD1DC58FD000000A00100003B0000006662782F41393633353835312D344632462D344230382D423046372D3739314545314133324237412F7265736F75726365732F
310
636F72652E786D6C8D504B6E833010BD0A9A6D65B00922041947112427E8052C33A156828DFCA97AFC9A40A576D7CDCCE87D344F8F9FBFE667F689CE6B6B3A6039850C8DB2A336530731DC4903D95970676DF82583CCC8193B5861107C72362E3BA4AC096842428D1D7107A5F7182053CF7474E0D507CE32973124857FE48B
310
540F3961CEF244279DE03EB81420DB9EAC1384436FA353E879B1B182C7A8C75DA3C7F453DF353A1075D537A7BA6464B8F535A99AE14A9A2BBD90E350DD183B5CFABE3AF262350B1EF4FC9351399401471025A527C218A1E53BAB5A5AB765F5469B96525EACF23FA6B88CFF34456DC2A1DCE36E360F82A5202F42F062ED2BAD
310
579969AFDD8A6F504B010214000A0000080000CC70623B3DEE336E79000000790000001B00000000000000000000000000000000006175746F6465736B2D64657369676E2D7061636B6167652E786D6C504B01021400140006080800CC70623BD486FD9CA0000000F40000001300000000000000000000000000B20000005B
310
436F6E74656E745F54797065735D2E786D6C504B01021400140006080800CC70623B853B8169EB0000007C010000080000000000000000000000000083010000636F72652E786D6C504B01021400140006080800CC70623B55019EA25F0000007C000000070000000000000000000000000094020000636E782E786D6C504B
310
01021400140006080800CC70623BDBABAAF470010000D40300000C00000000000000000000000000180300006662782F636F72652E786D6C504B01021400140006080800CC70623B9C113CC27E0000009D0000000B00000000000000000000000000B20400006662782F636E782E786D6C504B01021400140006080800CC70
310
623B7DF2F77C2A010000120200003100000000000000000000000000590500006662782F41393633353835312D344632462D344230382D423046372D3739314545314133324237412F636F72652E786D6C504B01021400140006080800CC70623BAD7543B64E010000330300003000000000000000000000000000D2060000
310
6662782F41393633353835312D344632462D344230382D423046372D3739314545314133324237412F636E782E786D6C504B01021400140006080800CC70623BE75B7789680500003C10000034000000000000000000000000006E0800006662782F41393633353835312D344632462D344230382D423046372D3739314545
310
314133324237412F6F626A656374732E786D6C504B01021400140006080000CC70623B0000000000000000000000003500000000000000000000000000280E00006662782F41393633353835312D344632462D344230382D423046372D3739314545314133324237412F76657274696365732E62696E504B01021400140006
310
080800CC70623BF270F133060000000400000036000000000000000000000000007B0E00006662782F41393633353835312D344632462D344230382D423046372D3739314545314133324237412F747269616E676C65732E62696E504B01021400140006080000CC70623B0000000000000000000000003700000000000000
310
000000000000D50E00006662782F41393633353835312D344632462D344230382D423046372D3739314545314133324237412F617474726962757465732E62696E504B01021400140006080800CC70623B08DA0BD1900000004101000036000000000000000000000000002A0F00006662782F41393633353835312D344632
310
462D344230382D423046372D3739314545314133324237412F6469726563746F72792E786D6C504B01021400140006080800CC70623BEDD1DC58FD000000A00100003B000000000000000000000000000E1000006662782F41393633353835312D344632462D344230382D423046372D3739314545314133324237412F7265
310
736F75726365732F636F72652E786D6C504B0506000000000E000E0080040000641100000000
  0
XRECORD
  5
371
102
{ACAD_REACTORS
330
1F7
102
}
330
1F7
100
AcDbXrecord
280
     1
102
MATERIAL
148
0.0
149
0.0
149
0.0
 93
        0
 94
      127
282
     0
 72
     1
 77
     1
171
     1
175
     1
179
     1
273
     0
  0
XRECORD
  5
1F8
102
{ACAD_REACTORS
330
1F7
102
}
330
1F7
100
AcDbXrecord
280
     1
 70
     1
 90
429727718
  1
30362254-06B7-45E0-A893-8CFA70E3D6BC
310
504B03040A0000080000CC70623B3DEE336E79000000790000001B0000006175746F6465736B2D64657369676E2D7061636B6167652E786D6C3C3F786D6C2076657273696F6E3D22312E302220656E636F64696E673D227574662D3822203F3E3C666F726D6174733E3C666F726D61743E687474703A2F2F736368656D612E
310
6175746F6465736B2E636F6D2F64657369676E2D7061636B6167652F323030393C2F666F726D61743E3C2F666F726D6174733E504B0304140006080800CC70623BD486FD9CA0000000F4000000130000005B436F6E74656E745F54797065735D2E786D6C7D8EC10E82300C865F65E91D8A1E8C310C0EEA1BF002731658846E
310
D98AC1B77784ABF1D8FE5FBFBF75BBCE937A534CCEB38643598122B6FEE978D0B0485F9C41B54DDD7D022595594E1A469170414C76A4D9A4D207E29CF43ECE46F218070CC6BECC4078ACAA135ACF422C856C0E68EA1BF5669944DDD7BCDE7B1F8E415D77AECB980613C2E4AC91FC167A2B244592486606FC29C8FD7F045B9A
310
EF7053A7E60B504B0304140006080800CC70623B1EC5D7A3EB0000007C01000008000000636F72652E786D6C8D90416EC3201045AF82665B6103C6756C6122AB4D4ED00B204C5C94182C03558F5F9C3852BBEB6A467FFE9B197D71FC9E6FE8CBACC17AD7032D0820E3B41FAD9B7A48F1820F808E52ACDEC75F36404ECDA687
310
4D0629A6D5A76597B477D1B89855E747B38B2A041301E95B6E7A08FAD3CCAA50296647B8168BD2573599823EBB0CA76447F43862C7BCCF5EAC59410E4DDD9C7973C2755553CCCFA4C603E3040F1565ED3B1FDE4E432BCA0D9622DAF9795FAF464533826484B498524CD807E51D79ED187F21878E10516EF63F505AC67F42C9
310
BA58B1FDDD071640D2FCC87D2045B96591CB3DA85CB7DCE40F504B0304140006080800CC70623B55019EA25F0000007C00000007000000636E782E786D6C4DCB3B0E80201045D1AD90E915ED2CF8AC45050C11660C8261F98AB1B07AC9C97D42D718D865D3E909258CFD00CCE24AC6E326A164D74DC0B4128928FF32603847
310
2BA13128B1252AC747C6BAB984FC68F0B87FE8960A5C09FE86CFB69FBA01504B0304140006080800CC70623B8C9102E971010000D40300000C0000006662782F636F72652E786D6CC5535B6E833010BC8AE5DF0A6C08340F1947A84D4ED00B38C6A128602363A31CBFCB234A53A551FA553EC09AD9F5CE8C31DB9E9B1AF5CA
310
7695D1198E428A91D2D214952E33ECDD315861B4E5CC1AE3BE9561A445A3323CC098B3D21ADFCE9034DA29ED00D5A6503328BA4E398C640D8B0C77F253352214DE4145770A5B214FA2546114020D759C75CE8200340D19DE981F0F6746269C33EFAB6266AB02A655C74A59CCF365BADC27CB5D902ED22848F6340DF238A141
310
BE88E2F57B92BFEDF23523433367AE6A2EEAA455C2A902F398D2751045018D3FA264435F3771F242571B4A1919CA6F9A7C5B3CD9E42BED16F12C776AEB308F40C848FC700B1139D4891EF410CEC810227CC6846F8386402064270EF5C5C709A05E49676C024C61FC95EA45ED154CA5211D1FF4FB8291A913A68E9B83EBBB33
310
E2A7673CDE118E5AE8124C0807CB8377834E366998436B950D7A7746DAD846D4CFD978E0F04FD455FC5D49D2D4C6FE9722321F10997F0F32DC47FE05504B0304140006080800CC70623BFFEA85907E0000009D0000000B0000006662782F636E782E786D6C4DCCD10A83201886E15B91FFDC95D95A811AB6F23E625948A6C3
310
E9D8E5AF46073BFAE0E1E365ED67B3E8ADC3CB78C7815C7240DA3DFC64DCC221C519D7805AC182F7F1EF06C88D9BE6703008B6049F9E274D7A1E938DBB5AE3D6131B2589BA0D3D965551E0B2EA732C9B9A624AAEB41E3A557677029960D9AFB4EF11165F504B0304140006080800CC70623B4FEEA4082C0100001202000031
310
0000006662782F39464131463745442D413632322D343644302D413938332D3331353338454246344243312F636F72652E786D6C8D515B6EC32010BC0AE2AB55850DD871ED0813254D72825EC00192A2C460F1A872FC42ED48ED5F7E00CDCECCCEB26C731F6FE05B39AFADE921293004CA082BB5B9F43086336A21D870E6AC
310
0D7F68109861543DCC30E4ECE26C9C164858139409093556AA051CBC570102714B8F1E7AF1A5C6A11862480C7F2DA6415C878B2A4891CA89C7990F2E050073937C42DE1DB7E4F87ED8A36D4329AA9B3D46DBAEAD504556557BD81DEBDD0761E52CE42C462D17B996298E3E6BE59E35C962CE821E1FF18553435012728A7187
310
0841987E927A8D9B35ADDF70BBC6989599FE4F1427F9A4286A132ABAC49D651EF234CD5CE04CDA78BA3DC2A8FB645D00B9DF8B57E215725C60BCA2A463E54C4CE327C7A65E1C7DB02E7DEFCBF594B864C5CA6CDBD49C957943E9FA5D5FBAF336F90F504B0304140006080800CC70623BAD7543B64E01000033030000300000
310
006662782F39464131463745442D413632322D343644302D413938332D3331353338454246344243312F636E782E786D6CD593CD6EC32010845F0571AD6CE3D48AD20813A9873E410FBD12D82434182C7EAAE6EDBB2424CD25871E7B41D6EC30B3FA84F9E67BB2E40B4234DE8DB46F1925E094D7C6ED479AD3AE5951B2113C
310
789FEE6C943839C1488B4C05DF079FE72A69D8C96C13AAD6B8631503449F83828872B949AC57D26200B826A308D316B4064D6E46FCDA41C05550DC9E483A00797BFD207EFB092A45DE9514C1BBD22178396BD39D891265658C238DEA00936C654E5E433CB65A26D9F6EDB5EBC14EBF49A45CB856E66048291F6939A9A81BB5
310
C8917738143CA680F4AA299D66A042CEB3354A2684DC9D8D178FE0D9B8B41CAAD720F880EE7EF93C0C18769E099ECC04D5A102C8049A8A05632F4DDF376CF1DE0F6BB65C2F8627B65A33C6BB62177CEBBDAD973006829F89F22E814B54F4BC2BE347F8AA8F681390B50FA73F804400B5F542E796F19FF974E7F78DB802FE05
310
E207504B0304140006080800CC70623B16AB87BA640500003C100000340000006662782F39464131463745442D413632322D343644302D413938332D3331353338454246344243312F6F626A656374732E786D6CAD575B6FA33818FD2B887DE6924B3BED8A326A92B68A663B534DD4D13E548A0C38942D60649B369D5FBFC7
310
600890A493BDE42160637FD7F31D7FF63E6FB3D478A55C242CBF3247B66B1A340F5994E4F19559CA8D75611A9F7D8F33263BCB4C232719BD32D5B4E97B316765A1A722BA21652A07B3B7B33F0D11D29C9A46981221AE4C113ED38CD8A4942CA2E2C58E882476BCD9DA23BB5ED8171B73523C0F841684D35CC252CCE79062D4
310
468DFA43D7747CCF51DF7D4FFDEB5593E3AB9CCA9FBEFE241792E4E19EB28198C968BAB8199F5D5A67D3E9C49A9E8F47D6EC76B6B0469F26EEFC7C3EBFBCBEB98462213924694B38DD98FE1D62C393D073EA4FADC5DAF04326852CCF6958F90F0F2B9BB5C48816348F90C7840A68EB78EDF68723159BCEE7891A6B95DDE9D3
310
BCEAEEE8086A6C6F9E5D4B59F0175C10A7A0820BAA5055C7473B5AE3CFDD452D602CD5DF12616444529E90D448938013FE6EFA58AA96F85E4F8C42275708571E98FE6827AF6B2B4AE3D7D83D64E5A64C53054DD3AF90BD06FEA9149565C94FCA0F6B834DC85599E4F2423B24DF0B6AFA979E534DFA9E7A4CC6FA631D486393
310
921829879BF5D781A373557BCB85E97FB90DB62B558F8795179C15944B051F40AB495CF35451D26A4727654E6D8033BD98EF82F21D91FF8AF2DD9982BCF1643BDD4EB516C9492E368C67C88DED563FC36D5EACF66DFF057C3658BDBFA69DF9578B3DA735B64F18C7F20770A9D45CFCF7FCF563D6456A277DBEF78A02637CA2
310
43B90A490AEAB94F72244481D24819A6C0E59B606BFA4B3025981DBB48EAB701D97BF19C577CC77F2D1B6C55A9EF3C732474C0B727303F625995056C3B02963D9EAC146BE78EC5FCEC7FA999EBC5EACBAAE41B12D27B4D2C0BBA49F244E2ECDC81B76B502F113D8F5EE8FB1BE3111CDD4FC2AA9B844CAB1288B68AB90A7CDC
310
1C166AB0D3DC5310625FCC14E779BFD0709F8890A629C9292B1B2DED31A4B0DA928CEE135085754027E3018A397D4D5427D15BD1330B677DC8934285AC3DF45A9EB68FF8F2B8FC0A509AFEECFD0FF2DE25CC6047F7214B195F07EFEB9A094D800F7BFAE8FED187B78EA8A3A400F115961BCAD1215E47C966530AF0EE8128FE
310
58CEBB996A8964FFA529A046635D9353B0336A8F700DDF46271A024E70B0B37C9DE01847591E54DED53D54202AB947E4076556AC49C6CA5C9E1226B7F1A7B1BE15DEED62C41B91E1B3E9AFAAA735036547343A925075041DF0A9979E893B391F8FCFA6967B3EFB644DCF6E5CEBFAE272625DCC6FAF3FB93793C5F90CE1EF57
310
407342756B10D1C489E8953CD1617E5CEECAD6F4EF8914CE5D5D504E5C3F1F9736DA62CFC11E00BCDDB8CC8A9466349744C1F75EBDA4DF09BA8A9E8C7A7E9991989E20E5DBDD6A6003664ED8F7A04A8DBE0DF6EAD9B9AA858342E47399053949D2C146EDB85DE4B176BB0965FBAC19BD19AA918E27FA50C1D22402E144464C
310
59462568E704B6E71915404CB72B8FF4EDE184DDAF753F284990D2C6926782963815403548A70C657FDEF80D2D9CEAA2AE4C1C76F60BFE74219A06527D6582DF6412526107381E55E353090704D085B52408D0933C4ED159D79BDA71BB4BC506F4831350EB6F979CD22D69BF7AC49B91A2C0A9DDA3D5CA36AD20FC478E37E6
310
1844E2352865EBCB6EA275A652E3836BE04EFB400BF1A2556F515F1FBB35B2AB35BD889C744FFA1004B5544B121E57F70215746DD2F5E2C1412B602CBF19455AC6C8E5E9922C4E01E65215385004546899059180EAFCF7A707CE7017CD8CDB0410789AB32C63B91E5CEBBBACB17AC6CD347A022D5075FD106377347AAABA7E
310
7D11590744509B44E205134DC1290F06580320F78E537D3D73540E06CB970B431F185308AD40BBD794D6D77003C5A36E8EAA54BA64597CD8F83BD552A080A365F7FF06504B0304140006080000CC70623B000000000000000000000000350000006662782F39464131463745442D413632322D343644302D413938332D3331
310
353338454246344243312F76657274696365732E62696E504B0304140006080800CC70623BF270F1330600000004000000360000006662782F39464131463745442D413632322D343644302D413938332D3331353338454246344243312F747269616E676C65732E62696E636660600000504B0304140006080000CC70623B
310
000000000000000000000000370000006662782F39464131463745442D413632322D343644302D413938332D3331353338454246344243312F617474726962757465732E62696E504B0304140006080800CC70623B08DA0BD19000000041010000360000006662782F39464131463745442D413632322D343644302D413938
310
332D3331353338454246344243312F6469726563746F72792E786D6C858F410AC3201045AF22B36F53E9A60B35CBEEBAE80D244E44489C6234F4F835464A48035D0DF398FF9F8AF63D0E6CC63039F212F8F9020C7D47C6792B21C5FE7403D62A1188E2E60C98D7234A5830286103A55745067B9D86B8A3CF9C7F90C11DE607
310
FB144396D7B6A82D282E9A152AD114D5EF2CB866EEE831B8EEA07A7BB5A8D7D61A2BAAEB7FD5F70921FF497D00504B0304140006080800CC70623B0D6EF93BFE000000A00100003B0000006662782F39464131463745442D413632322D343644302D413938332D3331353338454246344243312F7265736F75726365732F63
310
6F72652E786D6C8D50596E833010BD0A9ADFCA60B334011947A8694ED00B586642AC041B79A97AFC9A40A5F6AF3F33A3B7689E1E3F7DCD8FEC139DD7D6F4C0720A191A65476DA61E62B892236427C19DB5E1970C322367EC618541F0C9D9B8EC90B226A009093576C41D94DE63804C3DD2D18357379C652E63480A7FCF17A9
310
EE72C29CE5894E3AC17D702940B63D59270887DE46A7D0F36263058F518FBB468FE9A7BE6A7420864373B8D4873369AA8691FA421B3294352543C5CAF65C0F6FEF43CB8BD52C78D0F34F46E550061C419494B6843142CB0F5677F4B52BEB177AEC28E5C52AFF638ACBF84F53D42654E51E77B379102C05791282176B5F693D
310
CB4C7BED567C03504B010214000A0000080000CC70623B3DEE336E79000000790000001B00000000000000000000000000000000006175746F6465736B2D64657369676E2D7061636B6167652E786D6C504B01021400140006080800CC70623BD486FD9CA0000000F40000001300000000000000000000000000B20000005B
310
436F6E74656E745F54797065735D2E786D6C504B01021400140006080800CC70623B1EC5D7A3EB0000007C010000080000000000000000000000000083010000636F72652E786D6C504B01021400140006080800CC70623B55019EA25F0000007C000000070000000000000000000000000094020000636E782E786D6C504B
310
01021400140006080800CC70623B8C9102E971010000D40300000C00000000000000000000000000180300006662782F636F72652E786D6C504B01021400140006080800CC70623BFFEA85907E0000009D0000000B00000000000000000000000000B30400006662782F636E782E786D6C504B01021400140006080800CC70
310
623B4FEEA4082C0100001202000031000000000000000000000000005A0500006662782F39464131463745442D413632322D343644302D413938332D3331353338454246344243312F636F72652E786D6C504B01021400140006080800CC70623BAD7543B64E010000330300003000000000000000000000000000D5060000
310
6662782F39464131463745442D413632322D343644302D413938332D3331353338454246344243312F636E782E786D6C504B01021400140006080800CC70623B16AB87BA640500003C1000003400000000000000000000000000710800006662782F39464131463745442D413632322D343644302D413938332D3331353338
310
454246344243312F6F626A656374732E786D6C504B01021400140006080000CC70623B0000000000000000000000003500000000000000000000000000270E00006662782F39464131463745442D413632322D343644302D413938332D3331353338454246344243312F76657274696365732E62696E504B01021400140006
310
080800CC70623BF270F133060000000400000036000000000000000000000000007A0E00006662782F39464131463745442D413632322D343644302D413938332D3331353338454246344243312F747269616E676C65732E62696E504B01021400140006080000CC70623B0000000000000000000000003700000000000000
310
000000000000D40E00006662782F39464131463745442D413632322D343644302D413938332D3331353338454246344243312F617474726962757465732E62696E504B01021400140006080800CC70623B08DA0BD190000000410100003600000000000000000000000000290F00006662782F39464131463745442D413632
310
322D343644302D413938332D3331353338454246344243312F6469726563746F72792E786D6C504B01021400140006080800CC70623B0D6EF93BFE000000A00100003B000000000000000000000000000D1000006662782F39464131463745442D413632322D343644302D413938332D3331353338454246344243312F7265
310
736F75726365732F636F72652E786D6C504B0506000000000E000E0080040000641100000000
  0
XRECORD
  5
373
102
{ACAD_REACTORS
330
173
102
}
330
173
100
AcDbXrecord
280
     1
102
MATERIAL
148
0.0
149
0.0
149
0.0
 93
        0
 94
      127
282
     0
 72
     1
 77
     1
171
     1
175
     1
179
     1
273
     0
  0
XRECORD
  5
175
102
{ACAD_REACTORS
330
173
102
}
330
173
100
AcDbXrecord
280
     1
270
     1
271
     1
  0
XRECORD
  5
174
102
{ACAD_REACTORS
330
173
102
}
330
173
100
AcDbXrecord
280
     1
270
     1
271
     1
  0
XRECORD
  5
1FB
102
{ACAD_REACTORS
330
173
102
}
330
173
100
AcDbXrecord
280
     1
 70
     0
 90
1673772943
  1
ECE7A1D2-D628-4531-984C-D00F80459256
310
504B03040A0000080000CC70623B3DEE336E79000000790000001B0000006175746F6465736B2D64657369676E2D7061636B6167652E786D6C3C3F786D6C2076657273696F6E3D22312E302220656E636F64696E673D227574662D3822203F3E3C666F726D6174733E3C666F726D61743E687474703A2F2F736368656D612E
310
6175746F6465736B2E636F6D2F64657369676E2D7061636B6167652F323030393C2F666F726D61743E3C2F666F726D6174733E504B0304140006080800CC70623BD486FD9CA0000000F4000000130000005B436F6E74656E745F54797065735D2E786D6C7D8EC10E82300C865F65E91D8A1E8C310C0EEA1BF002731658846E
310
D98AC1B77784ABF1D8FE5FBFBF75BBCE937A534CCEB38643598122B6FEE978D0B0485F9C41B54DDD7D022595594E1A469170414C76A4D9A4D207E29CF43ECE46F218070CC6BECC4078ACAA135ACF422C856C0E68EA1BF5669944DDD7BCDE7B1F8E415D77AECB980613C2E4AC91FC167A2B244592486606FC29C8FD7F045B9A
310
EF7053A7E60B504B0304140006080800CC70623BD9DDAED0EC0000007C01000008000000636F72652E786D6C8D90416EC3201045AF82665B61836D9CD8C2444DD39CA01740405C94182C03558F5F9C3852BBEB6A467FFE9B197D7EF89E6EE8CB2CC17A37002D0820E394D7D68D03A478C17B4007C117EFE32F1B20272733C0
310
2A83E0E3E2D3BC49CABB685CCCAAF3DA6CA20CC14440EA969B0182FA34932C648AD911AEC52CD5558EA6A0CF2EC329598D1E47ACCEFBECC59A050463A7EA5833865FEBDD0E37353BE3EE8DBDE3F6786A48D375FBF6CC78B9C282473B3DEFABC5C86834888A900E538A49F5419B9EB47DD5BC907D4F082F57FB1F28CDFA9F50
310
B22ED6D5F6EE030B20687EE43E10BC5CB3C8E51E54AE6B6EE207504B0304140006080800CC70623B55019EA25F0000007C00000007000000636E782E786D6C4DCB3B0E80201045D1AD90E915ED2CF8AC45050C11660C8261F98AB1B07AC9C97D42D718D865D3E909258CFD00CCE24AC6E326A164D74DC0B4128928FF326038
310
472BA13128B1252AC747C6BAB984FC68F0B87FE8960A5C09FE86CFB69FBA01504B0304140006080800CC70623BA24EB22D72010000D40300000C0000006662782F636F72652E786D6CC5535B6E833010BC8AE5DF0A6C5E49888CA3A6694ED00B38E05014B091B1518EDFE511A5A9D228FD2A1F60CDEC7A67C6986DCE4D8D7A
310
69BA4AAB0C073EC548AA5C17952A33ECECD15B61B4E1CC686DBF9561A44423333CC098B3D268D7CE50AE9595CA02AA74216750749DB418E5352C32DCE59FB211BE70162ABA93DF8AFC244AE9073ED050C759670D0840D390E18DF9F1706664C23973AE2A66B62A605A75ACA4C13C4976E1364A12EF355A2EBD384AF65EFA96
310
BC7B8BED2EA6719AAE16FB8491A199335B351775B991C2CA02F390D2D40B028F861F41BCA68B7518BFD0D59A524686F29B26D7164F36B94AD9289CE54E6D1DE6010819891F6E21228B3AD1831EC219194284CF98F06DD01008846CC5A1BEF83801D4CBDC6A1303536877A57A513B0953A94FC707FDBE6064EA84A9E3E6E0FA
310
EE8CF0E9198F7784A316AA0413C2C2F2E0ECA0934D1AE6D05A69BCDE9E91D2A611F573361E38FC1375157F5752AE6B6DFE4B11990F88CCBF0719EE23FF02504B0304140006080800CC70623B408A7D3B7C0000009D0000000B0000006662782F636E782E786D6C4DCCD10A83201886E15B91FFDC552A92A0064DBC8F581632
310
D3703A76F9ABD1C18E3E78F878E5F0D9027ABBFCF2292AE86E2D20171F69F6715550CB827B40839639A5F2770314A7CD293819B45C73AAFB45B35BA61ACAA1C1C7E7855C58C15BC331339661262CC762340413D68D77DA5B42298546CBE6573AF60CEB2F504B0304140006080800CC70623B449FB9BD290100001202000031
310
0000006662782F36394639363044362D344446342D343946362D394244322D3234314243333846323333332F636F72652E786D6C8D515B6EC32010BC0AE22B55850D98B871848994463E412FE002495162B07854397EA176A4F62F3F2C9A9D991D587EB84F37F0AD7D30CEF6905418026DA553C65E7A98E219ED203808EE9D
310
8B7F6810D871D23D2C3014FCE25D9A57483A1BB58D19B54EE9151C43D0110279CB971E06F9A5A7B11A53CC8C70ADE6515EC78BAE4895DB992778883E0700CB907242D17643D7E2538BD869608875438BBAE38922CAC8F1BDD90DB4691A5E2F42C153326A951B95E398B3D1FE599322163C9AE9115F7A3D46ADA0A018778810
310
84E907617BDCEE297BC5BB3DC6BC2EF47FA234AB2745C9D8D8D035EE220B50105E2F0DC1954B9FB747187D9F9D8FA0CCDB042D5FA0C015C65B42DF78BD10F3F3B363CB56C7109DCFDFBBB97E662ED92EB62D13BC2E1BCAE5777DB9966D8A1F504B0304140006080800CC70623BAD7543B64E01000033030000300000006662
310
782F36394639363044362D344446342D343946362D394244322D3234314243333846323333332F636E782E786D6CD593CD6EC32010845F0571AD6CE3D48AD20813A9873E410FBD12D82434182C7EAAE6EDBB2424CD25871E7B41D6EC30B3FA84F9E67BB2E40B4234DE8DB46F1925E094D7C6ED479AD3AE5951B2113C789FEE
310
6C943839C1488B4C05DF079FE72A69D8C96C13AAD6B8631503449F83828872B949AC57D26200B826A308D316B4064D6E46FCDA41C05550DC9E483A00797BFD207EFB092A45DE9514C1BBD22178396BD39D891265658C238DEA00936C654E5E433CB65A26D9F6EDB5EBC14EBF49A45CB856E66048291F6939A9A81BB5C89177
310
38143CA680F4AA299D66A042CEB3354A2684DC9D8D178FE0D9B8B41CAAD720F880EE7EF93C0C18769E099ECC04D5A102C8049A8A05632F4DDF376CF1DE0F6BB65C2F8627B65A33C6BB62177CEBBDAD973006829F89F22E814B54F4BC2BE347F8AA8F681390B50FA73F804400B5F542E796F19FF974E7F78DB802FE05E20750
310
4B0304140006080800CC70623B8D05915C650500003B100000340000006662782F36394639363044362D344446342D343946362D394244322D3234314243333846323333332F6F626A656374732E786D6CAD575B6FA33814FE2B887D06429276DA1565D4266D158D3A339A6846FB502932E050B66023DB74D2FDF5FB190C01
310
9276B2973C046C8ECFF53B17071F77456EBD502133CEAE6CDF9DD81665314F32965ED995DA3A17B6F5310C04E7AA47665B8C14F4CAD6DB7618A48257A5D94AE89654B91AEDDEDDFC61C998326A5B714EA4BCB265FC440BE2924AF184CA6737218AB8E976E7FA6E4338649B0A523E8D98964450A6A029F619B8588D52FE7039
310
B1BD30F0F4F730D0FF866AF6369557DB33949F31A9088B0F848DD8CCFCF9F2767A76E99CCDE733677E3EF59D9BBB9BA5E37F984D16E78BC5E5F5ED25044B25C0C96822E8D60EEFE11B91C581D77CEA34368A1F5329E68CD1B8B61F16D63A1B8E092D294B10C78C4A48EB593D192E7DED9BDEE7995E1B91FDEDD3ACEA9FE831
310
6A756F9F7D4D79F4274C90A7A04248AA51D5F8C718DAE06FB2F75AC4796EBE65D22A88A22223B995679120E2D50E41AA49C260C046A35368846B0BECD0DFF3EBEB8AD4F835768F69B9ADF25C43D30E6B646F807FAA64AD59F61715C7A54127C4AACA98BA3006A9D792DAE165E0D59B61A01FB3A9F9D838D2DAE62445C86166
310
F37564E842E7DE6A69879FEEA2DD5AE7E371E1A5E025154AC307D06A03D73EB5978C58FFA4C8E9033066E0F3BD53BEC1F39F91BE7B55103791EDE6BBB991A2046172CB4581D8B893FA674DDA17A77B3B7C413D1B511FD2743BFF8A38F03A658705E3ADF8015C3A3417FF3D7E439FF591DA0B5F18BC20C1B8981957AE6392A3
310
F43C640C01D1A0B4728E2DD4F26DB4B3C3152A252A3B4E913CEC1C72F012782FF88EFF8637AA552DBEF76408E8A8DE9E50F9E1CB3A2DA0DB1B6039A893B56063DC5B3E3FFB5F72E67AB9FEB4AEC496C4F4C1149625DD662C53E89D7BF0F6151A046260D1337DFDC94502430F83B0EE07A130A224BCAD7DAE1D9FB6CD422FF6
310
920702629C4BB9AE79C12F243C6432A6794E18E5552BA56B431AAB5D91317302B2B071E86C3A42B1A02F999E24061403B5D0EB639195DA655DD3EBEAB4FB862DDF579F014AD0E73C22F99E28DA57FB98E75C6CA2D74D53086D600F4786E0FE3144B771A8A7B900F03594DB8A633CBC49B2EDB69228BB479CF863B5E807AAAB
310
23872F6DFEB4129B949CA33823F58830E86D65621E10047D9DB34D862E8EAC3C2ABC2F7B2C40D67CDFE01F5545B92105AF983AC54D93D69E56FB8E797F88913F898A9FEC705D3F9D1B54EC8426FB500D40A03BD0119B06E1B95DDC7EB8F6975367793EBD70E66733DFB9BC982F9CE564727731999F5D4ECFCE3B8D6A4DC2A0
310
6D50FD148437D110834A64C6CDDF57FBACB5C307A2A477DFE4939736CFEF2B175371E0E10CF0DD1D5C15654E0BCA14D1E87DD02FF93782A162C0A3D95F1524A52770F972BF1EE9809D13CE7DD599467F8ECE9ADD85CE85A34CD45355448C64F9E8A031DC2D596ACC6E5DD93D9B82DE2EF5CAF81363A8E47996A0DE24564A79
310
4115AACE09C55E14540231FDA13C319787134EBF34E3A022514E5B4D9E0826E25C02D5805B15ABE1BEF51B26383D445DD9E875EE33FE4C22DA16427D65A3BCA92CA6D28DD01DF5DC53330704308475351050232CCD31583787BA75774AFB06E5070DD0C8EF484E19968C5D83BA5B90B244D31E54D55A372320FE4786B7EA58
310
44E135AA5467CB7EA333A61683CC6A8C3257034C10CF46F40EF9F5BE59BE5BD30C3C72D235E95D10345C1D45445A5F0BB47E46A5EBE5570F9380B5FA629579952296A773720405982B9DE04011506178964401AA8BDF1FBF0A8EAB6861DD6580C0E38217056766716DAEB2D6FA0917D3E4116581EADB879C4E7CFFB11EFACD
310
3D641311495D92C8676CB409A72D18610D803CE8A626049E8EC1887CB5B44CC39883690DDA8399B4B9855B481E7D71D4A9D22F96E5BB73BF5793020C02137BF837504B0304140006080000CC70623B000000000000000000000000350000006662782F36394639363044362D344446342D343946362D394244322D32343142
310
43333846323333332F76657274696365732E62696E504B0304140006080800CC70623BF270F1330600000004000000360000006662782F36394639363044362D344446342D343946362D394244322D3234314243333846323333332F747269616E676C65732E62696E636660600000504B0304140006080000CC70623B0000
310
00000000000000000000370000006662782F36394639363044362D344446342D343946362D394244322D3234314243333846323333332F617474726962757465732E62696E504B0304140006080800CC70623B08DA0BD19000000041010000360000006662782F36394639363044362D344446342D343946362D394244322D
310
3234314243333846323333332F6469726563746F72792E786D6C858F410AC3201045AF22B36F53E9A60B35CBEEBAE80D244E44489C6234F4F835464A48035D0DF398FF9F8AF63D0E6CC63039F212F8F9020C7D47C6792B21C5FE7403D62A1188E2E60C98D7234A5830286103A55745067B9D86B8A3CF9C7F90C11DE607FB14
310
4396D7B6A82D282E9A152AD114D5EF2CB866EEE831B8EEA07A7BB5A8D7D61A2BAAEB7FD5F70921FF497D00504B0304140006080800CC70623BCA768048FE000000A00100003B0000006662782F36394639363044362D344446342D343946362D394244322D3234314243333846323333332F7265736F75726365732F636F72
310
652E786D6C8D50596E833010BD0A9ADFCA60D600328E9AA639412F609909B1126CE4A5EAF16B0295DABFFECC8CDEA2797AECF8353F924FB44E193D409E5248504B332A3D0D10FC95B4901C39B3C6F85F3248B49871801506CE266BC2B243D2688FDA47549B11775038871E12F988C7004EDE7016A9083E2ADC3D5D84BC8B09
310
D33C8D74D471E6BC8D0192EDC93A815B742658898E651BCB59086ADC356A8C3FD555A1055ED7E7E254D615792D0F075295F585746FF53B694EE78A565DD736979A65AB9933AFE69F8CD2A2F038022F28ED489E135A7CE4554F9BBEA85E68DB53CAB255FEC71496F19FA6A0B42F8B3DEE6673C0F318E4497096AD7DC5F52C33
310
EEB55BFE0D504B010214000A0000080000CC70623B3DEE336E79000000790000001B00000000000000000000000000000000006175746F6465736B2D64657369676E2D7061636B6167652E786D6C504B01021400140006080800CC70623BD486FD9CA0000000F40000001300000000000000000000000000B20000005B436F
310
6E74656E745F54797065735D2E786D6C504B01021400140006080800CC70623BD9DDAED0EC0000007C010000080000000000000000000000000083010000636F72652E786D6C504B01021400140006080800CC70623B55019EA25F0000007C000000070000000000000000000000000095020000636E782E786D6C504B0102
310
1400140006080800CC70623BA24EB22D72010000D40300000C00000000000000000000000000190300006662782F636F72652E786D6C504B01021400140006080800CC70623B408A7D3B7C0000009D0000000B00000000000000000000000000B50400006662782F636E782E786D6C504B01021400140006080800CC70623B
310
449FB9BD290100001202000031000000000000000000000000005A0500006662782F36394639363044362D344446342D343946362D394244322D3234314243333846323333332F636F72652E786D6C504B01021400140006080800CC70623BAD7543B64E010000330300003000000000000000000000000000D20600006662
310
782F36394639363044362D344446342D343946362D394244322D3234314243333846323333332F636E782E786D6C504B01021400140006080800CC70623B8D05915C650500003B10000034000000000000000000000000006E0800006662782F36394639363044362D344446342D343946362D394244322D32343142433338
310
46323333332F6F626A656374732E786D6C504B01021400140006080000CC70623B0000000000000000000000003500000000000000000000000000250E00006662782F36394639363044362D344446342D343946362D394244322D3234314243333846323333332F76657274696365732E62696E504B010214001400060808
310
00CC70623BF270F13306000000040000003600000000000000000000000000780E00006662782F36394639363044362D344446342D343946362D394244322D3234314243333846323333332F747269616E676C65732E62696E504B01021400140006080000CC70623B00000000000000000000000037000000000000000000
310
00000000D20E00006662782F36394639363044362D344446342D343946362D394244322D3234314243333846323333332F617474726962757465732E62696E504B01021400140006080800CC70623B08DA0BD190000000410100003600000000000000000000000000270F00006662782F36394639363044362D344446342D
310
343946362D394244322D3234314243333846323333332F6469726563746F72792E786D6C504B01021400140006080800CC70623BCA768048FE000000A00100003B000000000000000000000000000B1000006662782F36394639363044362D344446342D343946362D394244322D3234314243333846323333332F7265736F
310
75726365732F636F72652E786D6C504B0506000000000E000E0080040000621100000000
  0
XRECORD
  5
176
102
{ACAD_REACTORS
330
173
102
}
330
173
100
AcDbXrecord
280
     1
270
     1
271
     1
  0
XRECORD
  5
177
102
{ACAD_REACTORS
330
173
102
}
330
173
100
AcDbXrecord
280
     1
270
     1
271
     1
  0
XRECORD
  5
61F
102
{ACAD_REACTORS
330
475
102
}
330
475
100
AcDbXrecord
280
     1
102
DISPLAYNAME
  1
Metric50
102
FLAGS
 90
        0
  0
CELLSTYLEMAP
  5
5E4
102
{ACAD_REACTORS
330
162
102
}
330
162
100
AcDbCellStyleMap
 90
        3
300
CELLSTYLE
  1
TABLEFORMAT_BEGIN
 90
        5
170
     1
 91
        0
 92
    32768
 62
   257
 93
        1
300
CONTENTFORMAT
  1
CONTENTFORMAT_BEGIN
 90
        0
 91
        0
 92
      512
 93
        0
300

 40
0.0
140
1.0
 94
        5
 62
     0
340
11
144
6.0
309
CONTENTFORMAT_END
171
     1
301
MARGIN
  1
CELLMARGIN_BEGIN
 40
1.5
 40
1.5
 40
1.5
 40
1.5
 40
0.18
 40
0.18
309
CELLMARGIN_END
 94
        6
 95
        1
302
GRIDFORMAT
  1
GRIDFORMAT_BEGIN
 90
        0
 91
        1
 62
     0
 92
       -2
340
14
 93
        0
 40
1.125
309
GRIDFORMAT_END
 95
        2
302
GRIDFORMAT
  1
GRIDFORMAT_BEGIN
 90
        0
 91
        1
 62
     0
 92
       -2
340
14
 93
        0
 40
1.125
309
GRIDFORMAT_END
 95
        4
302
GRIDFORMAT
  1
GRIDFORMAT_BEGIN
 90
        0
 91
        1
 62
     0
 92
       -2
340
14
 93
        0
 40
1.125
309
GRIDFORMAT_END
 95
        8
302
GRIDFORMAT
  1
GRIDFORMAT_BEGIN
 90
        0
 91
        1
 62
     0
 92
       -2
340
14
 93
        0
 40
1.125
309
GRIDFORMAT_END
 95
       16
302
GRIDFORMAT
  1
GRIDFORMAT_BEGIN
 90
        0
 91
        1
 62
     0
 92
       -2
340
14
 93
        0
 40
1.125
309
GRIDFORMAT_END
 95
       32
302
GRIDFORMAT
  1
GRIDFORMAT_BEGIN
 90
        0
 91
        1
 62
     0
 92
       -2
340
14
 93
        0
 40
1.125
309
GRIDFORMAT_END
309
TABLEFORMAT_END
  1
CELLSTYLE_BEGIN
 90
        1
 91
        1
300
_TITLE
309
CELLSTYLE_END
300
CELLSTYLE
  1
TABLEFORMAT_BEGIN
 90
        5
170
     1
 91
        0
 92
        0
 62
   257
 93
        1
300
CONTENTFORMAT
  1
CONTENTFORMAT_BEGIN
 90
        0
 91
        0
 92
      512
 93
        0
300

 40
0.0
140
1.0
 94
        5
 62
     0
340
11
144
4.5
309
CONTENTFORMAT_END
171
     1
301
MARGIN
  1
CELLMARGIN_BEGIN
 40
1.5
 40
1.5
 40
1.5
 40
1.5
 40
0.18
 40
0.18
309
CELLMARGIN_END
 94
        6
 95
        1
302
GRIDFORMAT
  1
GRIDFORMAT_BEGIN
 90
        0
 91
        1
 62
     0
 92
       -2
340
14
 93
        0
 40
1.125
309
GRIDFORMAT_END
 95
        2
302
GRIDFORMAT
  1
GRIDFORMAT_BEGIN
 90
        0
 91
        1
 62
     0
 92
       -2
340
14
 93
        0
 40
1.125
309
GRIDFORMAT_END
 95
        4
302
GRIDFORMAT
  1
GRIDFORMAT_BEGIN
 90
        0
 91
        1
 62
     0
 92
       -2
340
14
 93
        0
 40
1.125
309
GRIDFORMAT_END
 95
        8
302
GRIDFORMAT
  1
GRIDFORMAT_BEGIN
 90
        0
 91
        1
 62
     0
 92
       -2
340
14
 93
        0
 40
1.125
309
GRIDFORMAT_END
 95
       16
302
GRIDFORMAT
  1
GRIDFORMAT_BEGIN
 90
        0
 91
        1
 62
     0
 92
       -2
340
14
 93
        0
 40
1.125
309
GRIDFORMAT_END
 95
       32
302
GRIDFORMAT
  1
GRIDFORMAT_BEGIN
 90
        0
 91
        1
 62
     0
 92
       -2
340
14
 93
        0
 40
1.125
309
GRIDFORMAT_END
309
TABLEFORMAT_END
  1
CELLSTYLE_BEGIN
 90
        2
 91
        1
300
_HEADER
309
CELLSTYLE_END
300
CELLSTYLE
  1
TABLEFORMAT_BEGIN
 90
        5
170
     1
 91
        0
 92
        0
 62
   257
 93
        1
300
CONTENTFORMAT
  1
CONTENTFORMAT_BEGIN
 90
        0
 91
        0
 92
      512
 93
        0
300

 40
0.0
140
1.0
 94
        2
 62
     0
340
11
144
4.5
309
CONTENTFORMAT_END
171
     1
301
MARGIN
  1
CELLMARGIN_BEGIN
 40
1.5
 40
1.5
 40
1.5
 40
1.5
 40
0.18
 40
0.18
309
CELLMARGIN_END
 94
        6
 95
        1
302
GRIDFORMAT
  1
GRIDFORMAT_BEGIN
 90
        0
 91
        1
 62
     0
 92
       -2
340
14
 93
        0
 40
1.125
309
GRIDFORMAT_END
 95
        2
302
GRIDFORMAT
  1
GRIDFORMAT_BEGIN
 90
        0
 91
        1
 62
     0
 92
       -2
340
14
 93
        0
 40
1.125
309
GRIDFORMAT_END
 95
        4
302
GRIDFORMAT
  1
GRIDFORMAT_BEGIN
 90
        0
 91
        1
 62
     0
 92
       -2
340
14
 93
        0
 40
1.125
309
GRIDFORMAT_END
 95
        8
302
GRIDFORMAT
  1
GRIDFORMAT_BEGIN
 90
        0
 91
        1
 62
     0
 92
       -2
340
14
 93
        0
 40
1.125
309
GRIDFORMAT_END
 95
       16
302
GRIDFORMAT
  1
GRIDFORMAT_BEGIN
 90
        0
 91
        1
 62
     0
 92
       -2
340
14
 93
        0
 40
1.125
309
GRIDFORMAT_END
 95
       32
302
GRIDFORMAT
  1
GRIDFORMAT_BEGIN
 90
        0
 91
        1
 62
     0
 92
       -2
340
14
 93
        0
 40
1.125
309
GRIDFORMAT_END
309
TABLEFORMAT_END
  1
CELLSTYLE_BEGIN
 90
        3
 91
        2
300
_DATA
309
CELLSTYLE_END
  0
XRECORD
  5
5EE
102
{ACAD_REACTORS
330
162
102
}
330
162
100
AcDbXrecord
280
     1
102
ACAD_ROUNDTRIP_PRE2007_TABLESTYLE
 90
      512
 91
        0
  1

 92
      512
 93
        0
  2

 94
      512
 95
        0
  3

  0
XRECORD
  5
5FA
102
{ACAD_REACTORS
330
5F9
102
}
330
5F9
100
AcDbXrecord
280
     1
102
RTVSPost2010Prop28
280
     1
102
RTVSPost2010PropOp28
 70
     1
102
RTVSPost2010Prop29
280
     1
102
RTVSPost2010PropOp29
 70
     1
102
RTVSPost2010Prop30
280
     0
102
RTVSPost2010PropOp30
 70
     1
102
RTVSPost2010Prop31
280
     0
102
RTVSPost2010PropOp31
 70
     1
102
RTVSPost2010Prop32
280
     0
102
RTVSPost2010PropOp32
 70
     1
102
RTVSPost2010Prop33
280
     0
102
RTVSPost2010PropOp33
 70
     1
102
RTVSPost2010Prop34
280
     0
102
RTVSPost2010PropOp34
 70
     1
102
RTVSPost2010Prop35
280
     0
102
RTVSPost2010PropOp35
 70
     1
102
RTVSPost2010Prop36
280
     0
102
RTVSPost2010PropOp36
 70
     1
102
RTVSPost2010Prop37
 90
       50
102
RTVSPost2010PropOp37
 70
     1
102
RTVSPost2010Prop38
140
0.0
102
RTVSPost2010PropOp38
 70
     1
102
RTVSPost2010Prop39
140
1.0
102
RTVSPost2010PropOp39
 70
     1
102
RTVSPost2010Prop40
 90
        0
102
RTVSPost2010PropOp40
 70
     1
102
RTVSPost2010Prop41ColorIndex
 90
       18
102
RTVSPost2010Prop41ColorRGB
 90
        0
102
RTVSPost2010PropOp41
 70
     1
102
RTVSPost2010Prop42
 90
       50
102
RTVSPost2010PropOp42
 70
     1
102
RTVSPost2010Prop43
 90
        3
102
RTVSPost2010PropOp43
 70
     1
102
RTVSPost2010Prop44ColorIndex
 90
        5
102
RTVSPost2010Prop44ColorRGB
 90
      255
102
RTVSPost2010PropOp44
 70
     1
102
RTVSPost2010Prop45
280
     0
102
RTVSPost2010PropOp45
 70
     1
102
RTVSPost2010Prop46
 90
       50
102
RTVSPost2010PropOp46
 70
     1
102
RTVSPost2010Prop47
 90
       50
102
RTVSPost2010PropOp47
 70
     1
102
RTVSPost2010Prop48
 90
       50
102
RTVSPost2010PropOp48
 70
     1
102
RTVSPost2010Prop49
280
     0
102
RTVSPost2010PropOp49
 70
     1
102
RTVSPost2010Prop50
 90
       50
102
RTVSPost2010PropOp50
 70
     1
102
RTVSPost2010Prop51ColorIndex
 90
      256
102
RTVSPost2010Prop51ColorRGB
 90
-16777216
102
RTVSPost2010PropOp51
 70
     0
102
RTVSPost2010Prop52
140
1.0
102
RTVSPost2010PropOp52
 70
     0
102
RTVSPost2010Prop53
 90
        2
102
RTVSPost2010PropOp53
 70
     1
102
RTVSPost2010Prop54
  1
strokes_ogs.tif
102
RTVSPost2010PropOp54
 70
     1
102
RTVSPost2010Prop55
280
     0
102
RTVSPost2010PropOp55
 70
     1
102
RTVSPost2010Prop56
140
1.0
102
RTVSPost2010PropOp56
 70
     1
102
RTVSPost2010Prop57
140
1.0
102
RTVSPost2010PropOp57
 70
     1
102
RTVSPropertyOp0
 70
     1
102
RTVSPropertyOp1
 70
     1
102
RTVSPropertyOp2
 70
     1
102
RTVSPropertyOp3
 70
     1
102
RTVSPropertyOp4
 70
     1
102
RTVSPropertyOp5
 70
     1
102
RTVSPropertyOp6
 70
     1
102
RTVSPropertyOp7
 70
     1
102
RTVSPropertyOp8
 70
     1
102
RTVSPropertyOp9
 70
     1
102
RTVSPropertyOp10
 70
     1
102
RTVSPropertyOp11
 70
     1
102
RTVSPropertyOp12
 70
     1
102
RTVSPropertyOp13
 70
     1
102
RTVSPropertyOp14
 70
     1
102
RTVSPropertyOp15
 70
     1
102
RTVSPropertyOp16
 70
     1
102
RTVSPropertyOp17
 70
     1
102
RTVSPropertyOp18
 70
     1
102
RTVSPropertyOp19
 70
     1
102
RTVSPropertyOp20
 70
     1
102
RTVSPropertyOp21
 70
     1
102
RTVSPropertyOp22
 70
     1
102
RTVSPropertyOp23
 70
     1
102
RTVSPropertyOp24
 70
     1
102
RTVSPropertyOp25
 70
     1
102
RTVSPropertyOp26
 70
     1
102
RTVSPropertyOp27
 70
     1
102
RTVSPropertyOp28
 70
     1
102
RTVSPropertyOp29
 70
     1
102
RTVSPropertyOp30
 70
     1
102
RTVSPropertyOp31
 70
     1
102
RTVSPropertyOp32
 70
     1
102
RTVSPropertyOp33
 70
     1
102
RTVSPropertyOp34
 70
     1
102
RTVSPropertyOp35
 70
     1
102
RTVSPropertyOp36
 70
     1
102
RTVSPropertyOp37
 70
     1
102
RTVSPropertyOp38
 70
     1
102
RTVSPropertyOp39
 70
     1
102
RTVSPropertyOp40
 70
     1
102
RTVSPropertyOp41
 70
     1
102
RTVSPropertyOp42
 70
     1
102
RTVSPropertyOp43
 70
     1
102
RTVSPropertyOp44
 70
     1
102
RTVSPropertyOp45
 70
     1
102
RTVSPropertyOp46
 70
     1
102
RTVSPropertyOp47
 70
     1
102
RTVSPropertyOp48
 70
     1
102
RTVSPropertyOp49
 70
     1
102
RTVSPropertyOp50
 70
     1
102
RTVSPropertyOp51
 70
     0
102
RTVSPropertyOp52
 70
     0
102
RTVSPropertyOp53
 70
     1
102
RTVSPropertyOp54
 70
     1
102
RTVSPropertyOp55
 70
     1
102
RTVSPropertyOp56
 70
     1
102
RTVSPropertyOp57
 70
     1
102
RTVSPropertyOp58
 70
     1
102
RTVSPropertyOp59
 70
     1
102
RTVSPropertyOp60
 70
     1
102
RTVSPropertyOp61
 70
     1
102
RTVSPropertyOp62
 70
     1
  0
XRECORD
  5
5F8
102
{ACAD_REACTORS
330
5F7
102
}
330
5F7
100
AcDbXrecord
280
     1
102
RTVSPost2010Prop28
280
     0
102
RTVSPost2010PropOp28
 70
     1
102
RTVSPost2010Prop29
280
     1
102
RTVSPost2010PropOp29
 70
     1
102
RTVSPost2010Prop30
280
     1
102
RTVSPost2010PropOp30
 70
     1
102
RTVSPost2010Prop31
280
     0
102
RTVSPost2010PropOp31
 70
     1
102
RTVSPost2010Prop32
280
     0
102
RTVSPost2010PropOp32
 70
     1
102
RTVSPost2010Prop33
280
     0
102
RTVSPost2010PropOp33
 70
     1
102
RTVSPost2010Prop34
280
     0
102
RTVSPost2010PropOp34
 70
     1
102
RTVSPost2010Prop35
280
     0
102
RTVSPost2010PropOp35
 70
     1
102
RTVSPost2010Prop36
280
     0
102
RTVSPost2010PropOp36
 70
     1
102
RTVSPost2010Prop37
 90
       50
102
RTVSPost2010PropOp37
 70
     1
102
RTVSPost2010Prop38
140
0.0
102
RTVSPost2010PropOp38
 70
     1
102
RTVSPost2010Prop39
140
1.0
102
RTVSPost2010PropOp39
 70
     1
102
RTVSPost2010Prop40
 90
        0
102
RTVSPost2010PropOp40
 70
     1
102
RTVSPost2010Prop41ColorIndex
 90
       18
102
RTVSPost2010Prop41ColorRGB
 90
        0
102
RTVSPost2010PropOp41
 70
     1
102
RTVSPost2010Prop42
 90
       50
102
RTVSPost2010PropOp42
 70
     1
102
RTVSPost2010Prop43
 90
        3
102
RTVSPost2010PropOp43
 70
     1
102
RTVSPost2010Prop44ColorIndex
 90
        5
102
RTVSPost2010Prop44ColorRGB
 90
      255
102
RTVSPost2010PropOp44
 70
     1
102
RTVSPost2010Prop45
280
     0
102
RTVSPost2010PropOp45
 70
     1
102
RTVSPost2010Prop46
 90
       50
102
RTVSPost2010PropOp46
 70
     1
102
RTVSPost2010Prop47
 90
       50
102
RTVSPost2010PropOp47
 70
     1
102
RTVSPost2010Prop48
 90
       50
102
RTVSPost2010PropOp48
 70
     1
102
RTVSPost2010Prop49
280
     0
102
RTVSPost2010PropOp49
 70
     1
102
RTVSPost2010Prop50
 90
       50
102
RTVSPost2010PropOp50
 70
     1
102
RTVSPost2010Prop51ColorIndex
 90
      256
102
RTVSPost2010Prop51ColorRGB
 90
-16777216
102
RTVSPost2010PropOp51
 70
     0
102
RTVSPost2010Prop52
140
1.0
102
RTVSPost2010PropOp52
 70
     0
102
RTVSPost2010Prop53
 90
        2
102
RTVSPost2010PropOp53
 70
     1
102
RTVSPost2010Prop54
  1
strokes_ogs.tif
102
RTVSPost2010PropOp54
 70
     1
102
RTVSPost2010Prop55
280
     0
102
RTVSPost2010PropOp55
 70
     1
102
RTVSPost2010Prop56
140
1.0
102
RTVSPost2010PropOp56
 70
     1
102
RTVSPost2010Prop57
140
1.0
102
RTVSPost2010PropOp57
 70
     1
102
RTVSPropertyOp0
 70
     1
102
RTVSPropertyOp1
 70
     1
102
RTVSPropertyOp2
 70
     1
102
RTVSPropertyOp3
 70
     1
102
RTVSPropertyOp4
 70
     1
102
RTVSPropertyOp5
 70
     1
102
RTVSPropertyOp6
 70
     1
102
RTVSPropertyOp7
 70
     1
102
RTVSPropertyOp8
 70
     1
102
RTVSPropertyOp9
 70
     1
102
RTVSPropertyOp10
 70
     1
102
RTVSPropertyOp11
 70
     1
102
RTVSPropertyOp12
 70
     1
102
RTVSPropertyOp13
 70
     1
102
RTVSPropertyOp14
 70
     1
102
RTVSPropertyOp15
 70
     1
102
RTVSPropertyOp16
 70
     1
102
RTVSPropertyOp17
 70
     1
102
RTVSPropertyOp18
 70
     1
102
RTVSPropertyOp19
 70
     1
102
RTVSPropertyOp20
 70
     1
102
RTVSPropertyOp21
 70
     1
102
RTVSPropertyOp22
 70
     1
102
RTVSPropertyOp23
 70
     1
102
RTVSPropertyOp24
 70
     1
102
RTVSPropertyOp25
 70
     1
102
RTVSPropertyOp26
 70
     1
102
RTVSPropertyOp27
 70
     1
102
RTVSPropertyOp28
 70
     1
102
RTVSPropertyOp29
 70
     1
102
RTVSPropertyOp30
 70
     1
102
RTVSPropertyOp31
 70
     1
102
RTVSPropertyOp32
 70
     1
102
RTVSPropertyOp33
 70
     1
102
RTVSPropertyOp34
 70
     1
102
RTVSPropertyOp35
 70
     1
102
RTVSPropertyOp36
 70
     1
102
RTVSPropertyOp37
 70
     1
102
RTVSPropertyOp38
 70
     1
102
RTVSPropertyOp39
 70
     1
102
RTVSPropertyOp40
 70
     1
102
RTVSPropertyOp41
 70
     1
102
RTVSPropertyOp42
 70
     1
102
RTVSPropertyOp43
 70
     1
102
RTVSPropertyOp44
 70
     1
102
RTVSPropertyOp45
 70
     1
102
RTVSPropertyOp46
 70
     1
102
RTVSPropertyOp47
 70
     1
102
RTVSPropertyOp48
 70
     1
102
RTVSPropertyOp49
 70
     1
102
RTVSPropertyOp50
 70
     1
102
RTVSPropertyOp51
 70
     0
102
RTVSPropertyOp52
 70
     0
102
RTVSPropertyOp53
 70
     1
102
RTVSPropertyOp54
 70
     1
102
RTVSPropertyOp55
 70
     1
102
RTVSPropertyOp56
 70
     1
102
RTVSPropertyOp57
 70
     1
102
RTVSPropertyOp58
 70
     1
102
RTVSPropertyOp59
 70
     1
102
RTVSPropertyOp60
 70
     1
102
RTVSPropertyOp61
 70
     1
102
RTVSPropertyOp62
 70
     1
  0
XRECORD
  5
606
102
{ACAD_REACTORS
330
605
102
}
330
605
100
AcDbXrecord
280
     1
102
RTVSPost2010Prop28
280
     0
102
RTVSPost2010PropOp28
 70
     1
102
RTVSPost2010Prop29
280
     1
102
RTVSPost2010PropOp29
 70
     1
102
RTVSPost2010Prop30
280
     1
102
RTVSPost2010PropOp30
 70
     1
102
RTVSPost2010Prop31
280
     0
102
RTVSPost2010PropOp31
 70
     1
102
RTVSPost2010Prop32
280
     0
102
RTVSPost2010PropOp32
 70
     1
102
RTVSPost2010Prop33
280
     0
102
RTVSPost2010PropOp33
 70
     1
102
RTVSPost2010Prop34
280
     0
102
RTVSPost2010PropOp34
 70
     1
102
RTVSPost2010Prop35
280
     0
102
RTVSPost2010PropOp35
 70
     1
102
RTVSPost2010Prop36
280
     0
102
RTVSPost2010PropOp36
 70
     1
102
RTVSPost2010Prop37
 90
       50
102
RTVSPost2010PropOp37
 70
     1
102
RTVSPost2010Prop38
140
0.0
102
RTVSPost2010PropOp38
 70
     1
102
RTVSPost2010Prop39
140
1.0
102
RTVSPost2010PropOp39
 70
     1
102
RTVSPost2010Prop40
 90
        0
102
RTVSPost2010PropOp40
 70
     1
102
RTVSPost2010Prop41ColorIndex
 90
       18
102
RTVSPost2010Prop41ColorRGB
 90
        0
102
RTVSPost2010PropOp41
 70
     1
102
RTVSPost2010Prop42
 90
       50
102
RTVSPost2010PropOp42
 70
     1
102
RTVSPost2010Prop43
 90
        3
102
RTVSPost2010PropOp43
 70
     1
102
RTVSPost2010Prop44ColorIndex
 90
        5
102
RTVSPost2010Prop44ColorRGB
 90
      255
102
RTVSPost2010PropOp44
 70
     1
102
RTVSPost2010Prop45
280
     0
102
RTVSPost2010PropOp45
 70
     1
102
RTVSPost2010Prop46
 90
       50
102
RTVSPost2010PropOp46
 70
     1
102
RTVSPost2010Prop47
 90
       50
102
RTVSPost2010PropOp47
 70
     1
102
RTVSPost2010Prop48
 90
       50
102
RTVSPost2010PropOp48
 70
     1
102
RTVSPost2010Prop49
280
     0
102
RTVSPost2010PropOp49
 70
     1
102
RTVSPost2010Prop50
 90
       50
102
RTVSPost2010PropOp50
 70
     1
102
RTVSPost2010Prop51ColorIndex
 90
      256
102
RTVSPost2010Prop51ColorRGB
 90
-16777216
102
RTVSPost2010PropOp51
 70
     0
102
RTVSPost2010Prop52
140
1.0
102
RTVSPost2010PropOp52
 70
     0
102
RTVSPost2010Prop53
 90
        2
102
RTVSPost2010PropOp53
 70
     1
102
RTVSPost2010Prop54
  1
strokes_ogs.tif
102
RTVSPost2010PropOp54
 70
     1
102
RTVSPost2010Prop55
280
     0
102
RTVSPost2010PropOp55
 70
     1
102
RTVSPost2010Prop56
140
1.0
102
RTVSPost2010PropOp56
 70
     1
102
RTVSPost2010Prop57
140
1.0
102
RTVSPost2010PropOp57
 70
     1
102
RTVSPropertyOp0
 70
     1
102
RTVSPropertyOp1
 70
     1
102
RTVSPropertyOp2
 70
     1
102
RTVSPropertyOp3
 70
     1
102
RTVSPropertyOp4
 70
     1
102
RTVSPropertyOp5
 70
     1
102
RTVSPropertyOp6
 70
     1
102
RTVSPropertyOp7
 70
     1
102
RTVSPropertyOp8
 70
     1
102
RTVSPropertyOp9
 70
     1
102
RTVSPropertyOp10
 70
     1
102
RTVSPropertyOp11
 70
     1
102
RTVSPropertyOp12
 70
     1
102
RTVSPropertyOp13
 70
     1
102
RTVSPropertyOp14
 70
     1
102
RTVSPropertyOp15
 70
     1
102
RTVSPropertyOp16
 70
     1
102
RTVSPropertyOp17
 70
     1
102
RTVSPropertyOp18
 70
     1
102
RTVSPropertyOp19
 70
     1
102
RTVSPropertyOp20
 70
     1
102
RTVSPropertyOp21
 70
     1
102
RTVSPropertyOp22
 70
     1
102
RTVSPropertyOp23
 70
     1
102
RTVSPropertyOp24
 70
     1
102
RTVSPropertyOp25
 70
     1
102
RTVSPropertyOp26
 70
     1
102
RTVSPropertyOp27
 70
     1
102
RTVSPropertyOp28
 70
     1
102
RTVSPropertyOp29
 70
     1
102
RTVSPropertyOp30
 70
     1
102
RTVSPropertyOp31
 70
     1
102
RTVSPropertyOp32
 70
     1
102
RTVSPropertyOp33
 70
     1
102
RTVSPropertyOp34
 70
     1
102
RTVSPropertyOp35
 70
     1
102
RTVSPropertyOp36
 70
     1
102
RTVSPropertyOp37
 70
     1
102
RTVSPropertyOp38
 70
     1
102
RTVSPropertyOp39
 70
     1
102
RTVSPropertyOp40
 70
     1
102
RTVSPropertyOp41
 70
     1
102
RTVSPropertyOp42
 70
     1
102
RTVSPropertyOp43
 70
     1
102
RTVSPropertyOp44
 70
     1
102
RTVSPropertyOp45
 70
     1
102
RTVSPropertyOp46
 70
     1
102
RTVSPropertyOp47
 70
     1
102
RTVSPropertyOp48
 70
     1
102
RTVSPropertyOp49
 70
     1
102
RTVSPropertyOp50
 70
     1
102
RTVSPropertyOp51
 70
     0
102
RTVSPropertyOp52
 70
     0
102
RTVSPropertyOp53
 70
     1
102
RTVSPropertyOp54
 70
     1
102
RTVSPropertyOp55
 70
     1
102
RTVSPropertyOp56
 70
     1
102
RTVSPropertyOp57
 70
     1
102
RTVSPropertyOp58
 70
     1
102
RTVSPropertyOp59
 70
     1
102
RTVSPropertyOp60
 70
     1
102
RTVSPropertyOp61
 70
     1
102
RTVSPropertyOp62
 70
     1
  0
XRECORD
  5
60E
102
{ACAD_REACTORS
330
60D
102
}
330
60D
100
AcDbXrecord
280
     1
102
RTVSPost2010Prop28
280
     0
102
RTVSPost2010PropOp28
 70
     1
102
RTVSPost2010Prop29
280
     1
102
RTVSPost2010PropOp29
 70
     1
102
RTVSPost2010Prop30
280
     1
102
RTVSPost2010PropOp30
 70
     1
102
RTVSPost2010Prop31
280
     0
102
RTVSPost2010PropOp31
 70
     1
102
RTVSPost2010Prop32
280
     0
102
RTVSPost2010PropOp32
 70
     1
102
RTVSPost2010Prop33
280
     0
102
RTVSPost2010PropOp33
 70
     1
102
RTVSPost2010Prop34
280
     0
102
RTVSPost2010PropOp34
 70
     1
102
RTVSPost2010Prop35
280
     0
102
RTVSPost2010PropOp35
 70
     1
102
RTVSPost2010Prop36
280
     0
102
RTVSPost2010PropOp36
 70
     1
102
RTVSPost2010Prop37
 90
       50
102
RTVSPost2010PropOp37
 70
     1
102
RTVSPost2010Prop38
140
0.0
102
RTVSPost2010PropOp38
 70
     1
102
RTVSPost2010Prop39
140
1.0
102
RTVSPost2010PropOp39
 70
     1
102
RTVSPost2010Prop40
 90
        0
102
RTVSPost2010PropOp40
 70
     1
102
RTVSPost2010Prop41ColorIndex
 90
       18
102
RTVSPost2010Prop41ColorRGB
 90
        0
102
RTVSPost2010PropOp41
 70
     1
102
RTVSPost2010Prop42
 90
       50
102
RTVSPost2010PropOp42
 70
     1
102
RTVSPost2010Prop43
 90
        3
102
RTVSPost2010PropOp43
 70
     1
102
RTVSPost2010Prop44ColorIndex
 90
        5
102
RTVSPost2010Prop44ColorRGB
 90
      255
102
RTVSPost2010PropOp44
 70
     1
102
RTVSPost2010Prop45
280
     0
102
RTVSPost2010PropOp45
 70
     1
102
RTVSPost2010Prop46
 90
       50
102
RTVSPost2010PropOp46
 70
     1
102
RTVSPost2010Prop47
 90
       50
102
RTVSPost2010PropOp47
 70
     1
102
RTVSPost2010Prop48
 90
       50
102
RTVSPost2010PropOp48
 70
     1
102
RTVSPost2010Prop49
280
     0
102
RTVSPost2010PropOp49
 70
     1
102
RTVSPost2010Prop50
 90
       50
102
RTVSPost2010PropOp50
 70
     1
102
RTVSPost2010Prop51ColorIndex
 90
      256
102
RTVSPost2010Prop51ColorRGB
 90
-16777216
102
RTVSPost2010PropOp51
 70
     0
102
RTVSPost2010Prop52
140
1.0
102
RTVSPost2010PropOp52
 70
     0
102
RTVSPost2010Prop53
 90
        2
102
RTVSPost2010PropOp53
 70
     1
102
RTVSPost2010Prop54
  1
strokes_ogs.tif
102
RTVSPost2010PropOp54
 70
     1
102
RTVSPost2010Prop55
280
     0
102
RTVSPost2010PropOp55
 70
     1
102
RTVSPost2010Prop56
140
1.0
102
RTVSPost2010PropOp56
 70
     1
102
RTVSPost2010Prop57
140
1.0
102
RTVSPost2010PropOp57
 70
     1
102
RTVSPropertyOp0
 70
     1
102
RTVSPropertyOp1
 70
     1
102
RTVSPropertyOp2
 70
     1
102
RTVSPropertyOp3
 70
     1
102
RTVSPropertyOp4
 70
     1
102
RTVSPropertyOp5
 70
     1
102
RTVSPropertyOp6
 70
     1
102
RTVSPropertyOp7
 70
     1
102
RTVSPropertyOp8
 70
     1
102
RTVSPropertyOp9
 70
     1
102
RTVSPropertyOp10
 70
     1
102
RTVSPropertyOp11
 70
     1
102
RTVSPropertyOp12
 70
     1
102
RTVSPropertyOp13
 70
     1
102
RTVSPropertyOp14
 70
     1
102
RTVSPropertyOp15
 70
     1
102
RTVSPropertyOp16
 70
     1
102
RTVSPropertyOp17
 70
     1
102
RTVSPropertyOp18
 70
     1
102
RTVSPropertyOp19
 70
     1
102
RTVSPropertyOp20
 70
     1
102
RTVSPropertyOp21
 70
     1
102
RTVSPropertyOp22
 70
     1
102
RTVSPropertyOp23
 70
     1
102
RTVSPropertyOp24
 70
     1
102
RTVSPropertyOp25
 70
     1
102
RTVSPropertyOp26
 70
     1
102
RTVSPropertyOp27
 70
     1
102
RTVSPropertyOp28
 70
     1
102
RTVSPropertyOp29
 70
     1
102
RTVSPropertyOp30
 70
     1
102
RTVSPropertyOp31
 70
     1
102
RTVSPropertyOp32
 70
     1
102
RTVSPropertyOp33
 70
     1
102
RTVSPropertyOp34
 70
     1
102
RTVSPropertyOp35
 70
     1
102
RTVSPropertyOp36
 70
     1
102
RTVSPropertyOp37
 70
     1
102
RTVSPropertyOp38
 70
     1
102
RTVSPropertyOp39
 70
     1
102
RTVSPropertyOp40
 70
     1
102
RTVSPropertyOp41
 70
     1
102
RTVSPropertyOp42
 70
     1
102
RTVSPropertyOp43
 70
     1
102
RTVSPropertyOp44
 70
     1
102
RTVSPropertyOp45
 70
     1
102
RTVSPropertyOp46
 70
     1
102
RTVSPropertyOp47
 70
     1
102
RTVSPropertyOp48
 70
     1
102
RTVSPropertyOp49
 70
     1
102
RTVSPropertyOp50
 70
     1
102
RTVSPropertyOp51
 70
     0
102
RTVSPropertyOp52
 70
     0
102
RTVSPropertyOp53
 70
     1
102
RTVSPropertyOp54
 70
     1
102
RTVSPropertyOp55
 70
     1
102
RTVSPropertyOp56
 70
     1
102
RTVSPropertyOp57
 70
     1
102
RTVSPropertyOp58
 70
     1
102
RTVSPropertyOp59
 70
     1
102
RTVSPropertyOp60
 70
     1
102
RTVSPropertyOp61
 70
     1
102
RTVSPropertyOp62
 70
     1
  0
XRECORD
  5
600
102
{ACAD_REACTORS
330
5FF
102
}
330
5FF
100
AcDbXrecord
280
     1
102
RTVSPost2010Prop28
280
     0
102
RTVSPost2010PropOp28
 70
     1
102
RTVSPost2010Prop29
280
     1
102
RTVSPost2010PropOp29
 70
     1
102
RTVSPost2010Prop30
280
     1
102
RTVSPost2010PropOp30
 70
     1
102
RTVSPost2010Prop31
280
     0
102
RTVSPost2010PropOp31
 70
     1
102
RTVSPost2010Prop32
280
     0
102
RTVSPost2010PropOp32
 70
     1
102
RTVSPost2010Prop33
280
     0
102
RTVSPost2010PropOp33
 70
     1
102
RTVSPost2010Prop34
280
     0
102
RTVSPost2010PropOp34
 70
     1
102
RTVSPost2010Prop35
280
     0
102
RTVSPost2010PropOp35
 70
     1
102
RTVSPost2010Prop36
280
     0
102
RTVSPost2010PropOp36
 70
     1
102
RTVSPost2010Prop37
 90
       50
102
RTVSPost2010PropOp37
 70
     1
102
RTVSPost2010Prop38
140
0.0
102
RTVSPost2010PropOp38
 70
     1
102
RTVSPost2010Prop39
140
1.0
102
RTVSPost2010PropOp39
 70
     1
102
RTVSPost2010Prop40
 90
        0
102
RTVSPost2010PropOp40
 70
     1
102
RTVSPost2010Prop41ColorIndex
 90
       18
102
RTVSPost2010Prop41ColorRGB
 90
        0
102
RTVSPost2010PropOp41
 70
     1
102
RTVSPost2010Prop42
 90
       50
102
RTVSPost2010PropOp42
 70
     1
102
RTVSPost2010Prop43
 90
        3
102
RTVSPost2010PropOp43
 70
     1
102
RTVSPost2010Prop44ColorIndex
 90
        5
102
RTVSPost2010Prop44ColorRGB
 90
      255
102
RTVSPost2010PropOp44
 70
     1
102
RTVSPost2010Prop45
280
     0
102
RTVSPost2010PropOp45
 70
     1
102
RTVSPost2010Prop46
 90
       50
102
RTVSPost2010PropOp46
 70
     1
102
RTVSPost2010Prop47
 90
       50
102
RTVSPost2010PropOp47
 70
     1
102
RTVSPost2010Prop48
 90
       50
102
RTVSPost2010PropOp48
 70
     1
102
RTVSPost2010Prop49
280
     0
102
RTVSPost2010PropOp49
 70
     1
102
RTVSPost2010Prop50
 90
       50
102
RTVSPost2010PropOp50
 70
     1
102
RTVSPost2010Prop51ColorIndex
 90
      256
102
RTVSPost2010Prop51ColorRGB
 90
-16777216
102
RTVSPost2010PropOp51
 70
     0
102
RTVSPost2010Prop52
140
1.0
102
RTVSPost2010PropOp52
 70
     0
102
RTVSPost2010Prop53
 90
        2
102
RTVSPost2010PropOp53
 70
     1
102
RTVSPost2010Prop54
  1
strokes_ogs.tif
102
RTVSPost2010PropOp54
 70
     1
102
RTVSPost2010Prop55
280
     0
102
RTVSPost2010PropOp55
 70
     1
102
RTVSPost2010Prop56
140
1.0
102
RTVSPost2010PropOp56
 70
     1
102
RTVSPost2010Prop57
140
1.0
102
RTVSPost2010PropOp57
 70
     1
102
RTVSPropertyOp0
 70
     1
102
RTVSPropertyOp1
 70
     1
102
RTVSPropertyOp2
 70
     1
102
RTVSPropertyOp3
 70
     1
102
RTVSPropertyOp4
 70
     1
102
RTVSPropertyOp5
 70
     1
102
RTVSPropertyOp6
 70
     1
102
RTVSPropertyOp7
 70
     1
102
RTVSPropertyOp8
 70
     1
102
RTVSPropertyOp9
 70
     1
102
RTVSPropertyOp10
 70
     1
102
RTVSPropertyOp11
 70
     1
102
RTVSPropertyOp12
 70
     1
102
RTVSPropertyOp13
 70
     1
102
RTVSPropertyOp14
 70
     1
102
RTVSPropertyOp15
 70
     1
102
RTVSPropertyOp16
 70
     1
102
RTVSPropertyOp17
 70
     1
102
RTVSPropertyOp18
 70
     1
102
RTVSPropertyOp19
 70
     1
102
RTVSPropertyOp20
 70
     1
102
RTVSPropertyOp21
 70
     1
102
RTVSPropertyOp22
 70
     1
102
RTVSPropertyOp23
 70
     1
102
RTVSPropertyOp24
 70
     1
102
RTVSPropertyOp25
 70
     1
102
RTVSPropertyOp26
 70
     1
102
RTVSPropertyOp27
 70
     1
102
RTVSPropertyOp28
 70
     1
102
RTVSPropertyOp29
 70
     1
102
RTVSPropertyOp30
 70
     1
102
RTVSPropertyOp31
 70
     1
102
RTVSPropertyOp32
 70
     1
102
RTVSPropertyOp33
 70
     1
102
RTVSPropertyOp34
 70
     1
102
RTVSPropertyOp35
 70
     1
102
RTVSPropertyOp36
 70
     1
102
RTVSPropertyOp37
 70
     1
102
RTVSPropertyOp38
 70
     1
102
RTVSPropertyOp39
 70
     1
102
RTVSPropertyOp40
 70
     1
102
RTVSPropertyOp41
 70
     1
102
RTVSPropertyOp42
 70
     1
102
RTVSPropertyOp43
 70
     1
102
RTVSPropertyOp44
 70
     1
102
RTVSPropertyOp45
 70
     1
102
RTVSPropertyOp46
 70
     1
102
RTVSPropertyOp47
 70
     1
102
RTVSPropertyOp48
 70
     1
102
RTVSPropertyOp49
 70
     1
102
RTVSPropertyOp50
 70
     1
102
RTVSPropertyOp51
 70
     0
102
RTVSPropertyOp52
 70
     0
102
RTVSPropertyOp53
 70
     1
102
RTVSPropertyOp54
 70
     1
102
RTVSPropertyOp55
 70
     1
102
RTVSPropertyOp56
 70
     1
102
RTVSPropertyOp57
 70
     1
102
RTVSPropertyOp58
 70
     1
102
RTVSPropertyOp59
 70
     1
102
RTVSPropertyOp60
 70
     1
102
RTVSPropertyOp61
 70
     1
102
RTVSPropertyOp62
 70
     1
  0
XRECORD
  5
604
102
{ACAD_REACTORS
330
603
102
}
330
603
100
AcDbXrecord
280
     1
102
RTVSPost2010Prop28
280
     0
102
RTVSPost2010PropOp28
 70
     1
102
RTVSPost2010Prop29
280
     1
102
RTVSPost2010PropOp29
 70
     1
102
RTVSPost2010Prop30
280
     1
102
RTVSPost2010PropOp30
 70
     1
102
RTVSPost2010Prop31
280
     0
102
RTVSPost2010PropOp31
 70
     1
102
RTVSPost2010Prop32
280
     0
102
RTVSPost2010PropOp32
 70
     1
102
RTVSPost2010Prop33
280
     0
102
RTVSPost2010PropOp33
 70
     1
102
RTVSPost2010Prop34
280
     0
102
RTVSPost2010PropOp34
 70
     1
102
RTVSPost2010Prop35
280
     0
102
RTVSPost2010PropOp35
 70
     1
102
RTVSPost2010Prop36
280
     0
102
RTVSPost2010PropOp36
 70
     1
102
RTVSPost2010Prop37
 90
       50
102
RTVSPost2010PropOp37
 70
     1
102
RTVSPost2010Prop38
140
0.0
102
RTVSPost2010PropOp38
 70
     1
102
RTVSPost2010Prop39
140
1.0
102
RTVSPost2010PropOp39
 70
     1
102
RTVSPost2010Prop40
 90
        0
102
RTVSPost2010PropOp40
 70
     1
102
RTVSPost2010Prop41ColorIndex
 90
       18
102
RTVSPost2010Prop41ColorRGB
 90
        0
102
RTVSPost2010PropOp41
 70
     1
102
RTVSPost2010Prop42
 90
       50
102
RTVSPost2010PropOp42
 70
     1
102
RTVSPost2010Prop43
 90
        3
102
RTVSPost2010PropOp43
 70
     1
102
RTVSPost2010Prop44ColorIndex
 90
        5
102
RTVSPost2010Prop44ColorRGB
 90
      255
102
RTVSPost2010PropOp44
 70
     1
102
RTVSPost2010Prop45
280
     0
102
RTVSPost2010PropOp45
 70
     1
102
RTVSPost2010Prop46
 90
       50
102
RTVSPost2010PropOp46
 70
     1
102
RTVSPost2010Prop47
 90
       50
102
RTVSPost2010PropOp47
 70
     1
102
RTVSPost2010Prop48
 90
       50
102
RTVSPost2010PropOp48
 70
     1
102
RTVSPost2010Prop49
280
     0
102
RTVSPost2010PropOp49
 70
     1
102
RTVSPost2010Prop50
 90
       50
102
RTVSPost2010PropOp50
 70
     1
102
RTVSPost2010Prop51ColorIndex
 90
      256
102
RTVSPost2010Prop51ColorRGB
 90
-16777216
102
RTVSPost2010PropOp51
 70
     0
102
RTVSPost2010Prop52
140
1.0
102
RTVSPost2010PropOp52
 70
     0
102
RTVSPost2010Prop53
 90
        2
102
RTVSPost2010PropOp53
 70
     1
102
RTVSPost2010Prop54
  1
strokes_ogs.tif
102
RTVSPost2010PropOp54
 70
     1
102
RTVSPost2010Prop55
280
     0
102
RTVSPost2010PropOp55
 70
     1
102
RTVSPost2010Prop56
140
1.0
102
RTVSPost2010PropOp56
 70
     1
102
RTVSPost2010Prop57
140
1.0
102
RTVSPost2010PropOp57
 70
     1
102
RTVSPropertyOp0
 70
     1
102
RTVSPropertyOp1
 70
     1
102
RTVSPropertyOp2
 70
     1
102
RTVSPropertyOp3
 70
     1
102
RTVSPropertyOp4
 70
     1
102
RTVSPropertyOp5
 70
     1
102
RTVSPropertyOp6
 70
     1
102
RTVSPropertyOp7
 70
     1
102
RTVSPropertyOp8
 70
     1
102
RTVSPropertyOp9
 70
     1
102
RTVSPropertyOp10
 70
     1
102
RTVSPropertyOp11
 70
     1
102
RTVSPropertyOp12
 70
     1
102
RTVSPropertyOp13
 70
     1
102
RTVSPropertyOp14
 70
     1
102
RTVSPropertyOp15
 70
     1
102
RTVSPropertyOp16
 70
     1
102
RTVSPropertyOp17
 70
     1
102
RTVSPropertyOp18
 70
     1
102
RTVSPropertyOp19
 70
     1
102
RTVSPropertyOp20
 70
     1
102
RTVSPropertyOp21
 70
     1
102
RTVSPropertyOp22
 70
     1
102
RTVSPropertyOp23
 70
     1
102
RTVSPropertyOp24
 70
     1
102
RTVSPropertyOp25
 70
     1
102
RTVSPropertyOp26
 70
     1
102
RTVSPropertyOp27
 70
     1
102
RTVSPropertyOp28
 70
     1
102
RTVSPropertyOp29
 70
     1
102
RTVSPropertyOp30
 70
     1
102
RTVSPropertyOp31
 70
     1
102
RTVSPropertyOp32
 70
     1
102
RTVSPropertyOp33
 70
     1
102
RTVSPropertyOp34
 70
     1
102
RTVSPropertyOp35
 70
     1
102
RTVSPropertyOp36
 70
     1
102
RTVSPropertyOp37
 70
     1
102
RTVSPropertyOp38
 70
     1
102
RTVSPropertyOp39
 70
     1
102
RTVSPropertyOp40
 70
     1
102
RTVSPropertyOp41
 70
     1
102
RTVSPropertyOp42
 70
     1
102
RTVSPropertyOp43
 70
     1
102
RTVSPropertyOp44
 70
     1
102
RTVSPropertyOp45
 70
     1
102
RTVSPropertyOp46
 70
     1
102
RTVSPropertyOp47
 70
     1
102
RTVSPropertyOp48
 70
     1
102
RTVSPropertyOp49
 70
     1
102
RTVSPropertyOp50
 70
     1
102
RTVSPropertyOp51
 70
     0
102
RTVSPropertyOp52
 70
     0
102
RTVSPropertyOp53
 70
     1
102
RTVSPropertyOp54
 70
     1
102
RTVSPropertyOp55
 70
     1
102
RTVSPropertyOp56
 70
     1
102
RTVSPropertyOp57
 70
     1
102
RTVSPropertyOp58
 70
     1
102
RTVSPropertyOp59
 70
     1
102
RTVSPropertyOp60
 70
     1
102
RTVSPropertyOp61
 70
     1
102
RTVSPropertyOp62
 70
     1
  0
XRECORD
  5
614
102
{ACAD_REACTORS
330
613
102
}
330
613
100
AcDbXrecord
280
     1
102
RTVSPost2010Prop28
280
     0
102
RTVSPost2010PropOp28
 70
     1
102
RTVSPost2010Prop29
280
     1
102
RTVSPost2010PropOp29
 70
     1
102
RTVSPost2010Prop30
280
     1
102
RTVSPost2010PropOp30
 70
     1
102
RTVSPost2010Prop31
280
     0
102
RTVSPost2010PropOp31
 70
     1
102
RTVSPost2010Prop32
280
     0
102
RTVSPost2010PropOp32
 70
     1
102
RTVSPost2010Prop33
280
     0
102
RTVSPost2010PropOp33
 70
     1
102
RTVSPost2010Prop34
280
     0
102
RTVSPost2010PropOp34
 70
     1
102
RTVSPost2010Prop35
280
     0
102
RTVSPost2010PropOp35
 70
     1
102
RTVSPost2010Prop36
280
     0
102
RTVSPost2010PropOp36
 70
     1
102
RTVSPost2010Prop37
 90
       50
102
RTVSPost2010PropOp37
 70
     1
102
RTVSPost2010Prop38
140
0.0
102
RTVSPost2010PropOp38
 70
     1
102
RTVSPost2010Prop39
140
1.0
102
RTVSPost2010PropOp39
 70
     1
102
RTVSPost2010Prop40
 90
        0
102
RTVSPost2010PropOp40
 70
     1
102
RTVSPost2010Prop41ColorIndex
 90
       18
102
RTVSPost2010Prop41ColorRGB
 90
        0
102
RTVSPost2010PropOp41
 70
     1
102
RTVSPost2010Prop42
 90
       50
102
RTVSPost2010PropOp42
 70
     1
102
RTVSPost2010Prop43
 90
        3
102
RTVSPost2010PropOp43
 70
     1
102
RTVSPost2010Prop44ColorIndex
 90
        5
102
RTVSPost2010Prop44ColorRGB
 90
      255
102
RTVSPost2010PropOp44
 70
     1
102
RTVSPost2010Prop45
280
     0
102
RTVSPost2010PropOp45
 70
     1
102
RTVSPost2010Prop46
 90
       50
102
RTVSPost2010PropOp46
 70
     1
102
RTVSPost2010Prop47
 90
       50
102
RTVSPost2010PropOp47
 70
     1
102
RTVSPost2010Prop48
 90
       50
102
RTVSPost2010PropOp48
 70
     1
102
RTVSPost2010Prop49
280
     0
102
RTVSPost2010PropOp49
 70
     1
102
RTVSPost2010Prop50
 90
       50
102
RTVSPost2010PropOp50
 70
     1
102
RTVSPost2010Prop51ColorIndex
 90
      256
102
RTVSPost2010Prop51ColorRGB
 90
-16777216
102
RTVSPost2010PropOp51
 70
     0
102
RTVSPost2010Prop52
140
1.0
102
RTVSPost2010PropOp52
 70
     0
102
RTVSPost2010Prop53
 90
        2
102
RTVSPost2010PropOp53
 70
     1
102
RTVSPost2010Prop54
  1
strokes_ogs.tif
102
RTVSPost2010PropOp54
 70
     1
102
RTVSPost2010Prop55
280
     0
102
RTVSPost2010PropOp55
 70
     1
102
RTVSPost2010Prop56
140
1.0
102
RTVSPost2010PropOp56
 70
     1
102
RTVSPost2010Prop57
140
1.0
102
RTVSPost2010PropOp57
 70
     1
102
RTVSPropertyOp0
 70
     0
102
RTVSPropertyOp1
 70
     0
102
RTVSPropertyOp2
 70
     0
102
RTVSPropertyOp3
 70
     0
102
RTVSPropertyOp4
 70
     0
102
RTVSPropertyOp5
 70
     0
102
RTVSPropertyOp6
 70
     0
102
RTVSPropertyOp7
 70
     0
102
RTVSPropertyOp8
 70
     0
102
RTVSPropertyOp9
 70
     0
102
RTVSPropertyOp10
 70
     0
102
RTVSPropertyOp11
 70
     0
102
RTVSPropertyOp12
 70
     0
102
RTVSPropertyOp13
 70
     0
102
RTVSPropertyOp14
 70
     2
102
RTVSPropertyOp15
 70
     0
102
RTVSPropertyOp16
 70
     0
102
RTVSPropertyOp17
 70
     0
102
RTVSPropertyOp18
 70
     0
102
RTVSPropertyOp19
 70
     0
102
RTVSPropertyOp20
 70
     0
102
RTVSPropertyOp21
 70
     0
102
RTVSPropertyOp22
 70
     0
102
RTVSPropertyOp23
 70
     0
102
RTVSPropertyOp24
 70
     0
102
RTVSPropertyOp25
 70
     0
102
RTVSPropertyOp26
 70
     0
102
RTVSPropertyOp27
 70
     0
102
RTVSPropertyOp28
 70
     1
102
RTVSPropertyOp29
 70
     1
102
RTVSPropertyOp30
 70
     1
102
RTVSPropertyOp31
 70
     1
102
RTVSPropertyOp32
 70
     1
102
RTVSPropertyOp33
 70
     1
102
RTVSPropertyOp34
 70
     1
102
RTVSPropertyOp35
 70
     1
102
RTVSPropertyOp36
 70
     1
102
RTVSPropertyOp37
 70
     1
102
RTVSPropertyOp38
 70
     1
102
RTVSPropertyOp39
 70
     1
102
RTVSPropertyOp40
 70
     1
102
RTVSPropertyOp41
 70
     1
102
RTVSPropertyOp42
 70
     1
102
RTVSPropertyOp43
 70
     1
102
RTVSPropertyOp44
 70
     1
102
RTVSPropertyOp45
 70
     1
102
RTVSPropertyOp46
 70
     1
102
RTVSPropertyOp47
 70
     1
102
RTVSPropertyOp48
 70
     1
102
RTVSPropertyOp49
 70
     1
102
RTVSPropertyOp50
 70
     1
102
RTVSPropertyOp51
 70
     0
102
RTVSPropertyOp52
 70
     0
102
RTVSPropertyOp53
 70
     1
102
RTVSPropertyOp54
 70
     1
102
RTVSPropertyOp55
 70
     1
102
RTVSPropertyOp56
 70
     1
102
RTVSPropertyOp57
 70
     1
102
RTVSPropertyOp58
 70
     1
102
RTVSPropertyOp59
 70
     1
102
RTVSPropertyOp60
 70
     1
102
RTVSPropertyOp61
 70
     1
102
RTVSPropertyOp62
 70
     1
  0
XRECORD
  5
60C
102
{ACAD_REACTORS
330
60B
102
}
330
60B
100
AcDbXrecord
280
     1
102
RTVSPost2010Prop28
280
     0
102
RTVSPost2010PropOp28
 70
     1
102
RTVSPost2010Prop29
280
     1
102
RTVSPost2010PropOp29
 70
     1
102
RTVSPost2010Prop30
280
     1
102
RTVSPost2010PropOp30
 70
     1
102
RTVSPost2010Prop31
280
     0
102
RTVSPost2010PropOp31
 70
     1
102
RTVSPost2010Prop32
280
     0
102
RTVSPost2010PropOp32
 70
     1
102
RTVSPost2010Prop33
280
     0
102
RTVSPost2010PropOp33
 70
     1
102
RTVSPost2010Prop34
280
     0
102
RTVSPost2010PropOp34
 70
     1
102
RTVSPost2010Prop35
280
     0
102
RTVSPost2010PropOp35
 70
     1
102
RTVSPost2010Prop36
280
     0
102
RTVSPost2010PropOp36
 70
     1
102
RTVSPost2010Prop37
 90
       50
102
RTVSPost2010PropOp37
 70
     1
102
RTVSPost2010Prop38
140
0.0
102
RTVSPost2010PropOp38
 70
     1
102
RTVSPost2010Prop39
140
1.0
102
RTVSPost2010PropOp39
 70
     1
102
RTVSPost2010Prop40
 90
        0
102
RTVSPost2010PropOp40
 70
     1
102
RTVSPost2010Prop41ColorIndex
 90
       18
102
RTVSPost2010Prop41ColorRGB
 90
        0
102
RTVSPost2010PropOp41
 70
     1
102
RTVSPost2010Prop42
 90
       50
102
RTVSPost2010PropOp42
 70
     1
102
RTVSPost2010Prop43
 90
        3
102
RTVSPost2010PropOp43
 70
     1
102
RTVSPost2010Prop44ColorIndex
 90
        5
102
RTVSPost2010Prop44ColorRGB
 90
      255
102
RTVSPost2010PropOp44
 70
     1
102
RTVSPost2010Prop45
280
     0
102
RTVSPost2010PropOp45
 70
     1
102
RTVSPost2010Prop46
 90
       50
102
RTVSPost2010PropOp46
 70
     1
102
RTVSPost2010Prop47
 90
       50
102
RTVSPost2010PropOp47
 70
     1
102
RTVSPost2010Prop48
 90
       50
102
RTVSPost2010PropOp48
 70
     1
102
RTVSPost2010Prop49
280
     0
102
RTVSPost2010PropOp49
 70
     1
102
RTVSPost2010Prop50
 90
       50
102
RTVSPost2010PropOp50
 70
     1
102
RTVSPost2010Prop51ColorIndex
 90
      256
102
RTVSPost2010Prop51ColorRGB
 90
-16777216
102
RTVSPost2010PropOp51
 70
     0
102
RTVSPost2010Prop52
140
1.0
102
RTVSPost2010PropOp52
 70
     0
102
RTVSPost2010Prop53
 90
        2
102
RTVSPost2010PropOp53
 70
     1
102
RTVSPost2010Prop54
  1
strokes_ogs.tif
102
RTVSPost2010PropOp54
 70
     1
102
RTVSPost2010Prop55
280
     0
102
RTVSPost2010PropOp55
 70
     1
102
RTVSPost2010Prop56
140
1.0
102
RTVSPost2010PropOp56
 70
     1
102
RTVSPost2010Prop57
140
1.0
102
RTVSPost2010PropOp57
 70
     1
102
RTVSPropertyOp0
 70
     1
102
RTVSPropertyOp1
 70
     1
102
RTVSPropertyOp2
 70
     1
102
RTVSPropertyOp3
 70
     1
102
RTVSPropertyOp4
 70
     1
102
RTVSPropertyOp5
 70
     1
102
RTVSPropertyOp6
 70
     1
102
RTVSPropertyOp7
 70
     1
102
RTVSPropertyOp8
 70
     1
102
RTVSPropertyOp9
 70
     1
102
RTVSPropertyOp10
 70
     1
102
RTVSPropertyOp11
 70
     1
102
RTVSPropertyOp12
 70
     1
102
RTVSPropertyOp13
 70
     1
102
RTVSPropertyOp14
 70
     1
102
RTVSPropertyOp15
 70
     1
102
RTVSPropertyOp16
 70
     1
102
RTVSPropertyOp17
 70
     1
102
RTVSPropertyOp18
 70
     1
102
RTVSPropertyOp19
 70
     1
102
RTVSPropertyOp20
 70
     1
102
RTVSPropertyOp21
 70
     1
102
RTVSPropertyOp22
 70
     1
102
RTVSPropertyOp23
 70
     1
102
RTVSPropertyOp24
 70
     1
102
RTVSPropertyOp25
 70
     1
102
RTVSPropertyOp26
 70
     1
102
RTVSPropertyOp27
 70
     1
102
RTVSPropertyOp28
 70
     1
102
RTVSPropertyOp29
 70
     1
102
RTVSPropertyOp30
 70
     1
102
RTVSPropertyOp31
 70
     1
102
RTVSPropertyOp32
 70
     1
102
RTVSPropertyOp33
 70
     1
102
RTVSPropertyOp34
 70
     1
102
RTVSPropertyOp35
 70
     1
102
RTVSPropertyOp36
 70
     1
102
RTVSPropertyOp37
 70
     1
102
RTVSPropertyOp38
 70
     1
102
RTVSPropertyOp39
 70
     1
102
RTVSPropertyOp40
 70
     1
102
RTVSPropertyOp41
 70
     1
102
RTVSPropertyOp42
 70
     1
102
RTVSPropertyOp43
 70
     1
102
RTVSPropertyOp44
 70
     1
102
RTVSPropertyOp45
 70
     1
102
RTVSPropertyOp46
 70
     1
102
RTVSPropertyOp47
 70
     1
102
RTVSPropertyOp48
 70
     1
102
RTVSPropertyOp49
 70
     1
102
RTVSPropertyOp50
 70
     1
102
RTVSPropertyOp51
 70
     0
102
RTVSPropertyOp52
 70
     0
102
RTVSPropertyOp53
 70
     1
102
RTVSPropertyOp54
 70
     1
102
RTVSPropertyOp55
 70
     1
102
RTVSPropertyOp56
 70
     1
102
RTVSPropertyOp57
 70
     1
102
RTVSPropertyOp58
 70
     1
102
RTVSPropertyOp59
 70
     1
102
RTVSPropertyOp60
 70
     1
102
RTVSPropertyOp61
 70
     1
102
RTVSPropertyOp62
 70
     1
  0
XRECORD
  5
5F0
102
{ACAD_REACTORS
330
5EF
102
}
330
5EF
100
AcDbXrecord
280
     1
102
RTVSPost2010Prop28
280
     0
102
RTVSPost2010PropOp28
 70
     1
102
RTVSPost2010Prop29
280
     1
102
RTVSPost2010PropOp29
 70
     1
102
RTVSPost2010Prop30
280
     1
102
RTVSPost2010PropOp30
 70
     1
102
RTVSPost2010Prop31
280
     0
102
RTVSPost2010PropOp31
 70
     1
102
RTVSPost2010Prop32
280
     0
102
RTVSPost2010PropOp32
 70
     1
102
RTVSPost2010Prop33
280
     0
102
RTVSPost2010PropOp33
 70
     1
102
RTVSPost2010Prop34
280
     0
102
RTVSPost2010PropOp34
 70
     1
102
RTVSPost2010Prop35
280
     0
102
RTVSPost2010PropOp35
 70
     1
102
RTVSPost2010Prop36
280
     0
102
RTVSPost2010PropOp36
 70
     1
102
RTVSPost2010Prop37
 90
       50
102
RTVSPost2010PropOp37
 70
     1
102
RTVSPost2010Prop38
140
0.0
102
RTVSPost2010PropOp38
 70
     1
102
RTVSPost2010Prop39
140
1.0
102
RTVSPost2010PropOp39
 70
     1
102
RTVSPost2010Prop40
 90
        0
102
RTVSPost2010PropOp40
 70
     1
102
RTVSPost2010Prop41ColorIndex
 90
       18
102
RTVSPost2010Prop41ColorRGB
 90
        0
102
RTVSPost2010PropOp41
 70
     1
102
RTVSPost2010Prop42
 90
       50
102
RTVSPost2010PropOp42
 70
     1
102
RTVSPost2010Prop43
 90
        3
102
RTVSPost2010PropOp43
 70
     1
102
RTVSPost2010Prop44ColorIndex
 90
        5
102
RTVSPost2010Prop44ColorRGB
 90
      255
102
RTVSPost2010PropOp44
 70
     1
102
RTVSPost2010Prop45
280
     0
102
RTVSPost2010PropOp45
 70
     1
102
RTVSPost2010Prop46
 90
       50
102
RTVSPost2010PropOp46
 70
     1
102
RTVSPost2010Prop47
 90
       50
102
RTVSPost2010PropOp47
 70
     1
102
RTVSPost2010Prop48
 90
       50
102
RTVSPost2010PropOp48
 70
     1
102
RTVSPost2010Prop49
280
     0
102
RTVSPost2010PropOp49
 70
     1
102
RTVSPost2010Prop50
 90
       50
102
RTVSPost2010PropOp50
 70
     1
102
RTVSPost2010Prop51ColorIndex
 90
      256
102
RTVSPost2010Prop51ColorRGB
 90
-16777216
102
RTVSPost2010PropOp51
 70
     0
102
RTVSPost2010Prop52
140
1.0
102
RTVSPost2010PropOp52
 70
     0
102
RTVSPost2010Prop53
 90
        2
102
RTVSPost2010PropOp53
 70
     1
102
RTVSPost2010Prop54
  1
strokes_ogs.tif
102
RTVSPost2010PropOp54
 70
     1
102
RTVSPost2010Prop55
280
     0
102
RTVSPost2010PropOp55
 70
     1
102
RTVSPost2010Prop56
140
1.0
102
RTVSPost2010PropOp56
 70
     1
102
RTVSPost2010Prop57
140
1.0
102
RTVSPost2010PropOp57
 70
     1
102
RTVSPropertyOp0
 70
     1
102
RTVSPropertyOp1
 70
     1
102
RTVSPropertyOp2
 70
     1
102
RTVSPropertyOp3
 70
     1
102
RTVSPropertyOp4
 70
     1
102
RTVSPropertyOp5
 70
     1
102
RTVSPropertyOp6
 70
     1
102
RTVSPropertyOp7
 70
     1
102
RTVSPropertyOp8
 70
     1
102
RTVSPropertyOp9
 70
     1
102
RTVSPropertyOp10
 70
     1
102
RTVSPropertyOp11
 70
     1
102
RTVSPropertyOp12
 70
     1
102
RTVSPropertyOp13
 70
     1
102
RTVSPropertyOp14
 70
     1
102
RTVSPropertyOp15
 70
     1
102
RTVSPropertyOp16
 70
     1
102
RTVSPropertyOp17
 70
     1
102
RTVSPropertyOp18
 70
     1
102
RTVSPropertyOp19
 70
     1
102
RTVSPropertyOp20
 70
     1
102
RTVSPropertyOp21
 70
     1
102
RTVSPropertyOp22
 70
     1
102
RTVSPropertyOp23
 70
     1
102
RTVSPropertyOp24
 70
     1
102
RTVSPropertyOp25
 70
     1
102
RTVSPropertyOp26
 70
     1
102
RTVSPropertyOp27
 70
     1
102
RTVSPropertyOp28
 70
     1
102
RTVSPropertyOp29
 70
     1
102
RTVSPropertyOp30
 70
     1
102
RTVSPropertyOp31
 70
     1
102
RTVSPropertyOp32
 70
     1
102
RTVSPropertyOp33
 70
     1
102
RTVSPropertyOp34
 70
     1
102
RTVSPropertyOp35
 70
     1
102
RTVSPropertyOp36
 70
     1
102
RTVSPropertyOp37
 70
     1
102
RTVSPropertyOp38
 70
     1
102
RTVSPropertyOp39
 70
     1
102
RTVSPropertyOp40
 70
     1
102
RTVSPropertyOp41
 70
     1
102
RTVSPropertyOp42
 70
     1
102
RTVSPropertyOp43
 70
     1
102
RTVSPropertyOp44
 70
     1
102
RTVSPropertyOp45
 70
     1
102
RTVSPropertyOp46
 70
     1
102
RTVSPropertyOp47
 70
     1
102
RTVSPropertyOp48
 70
     1
102
RTVSPropertyOp49
 70
     1
102
RTVSPropertyOp50
 70
     1
102
RTVSPropertyOp51
 70
     0
102
RTVSPropertyOp52
 70
     0
102
RTVSPropertyOp53
 70
     1
102
RTVSPropertyOp54
 70
     1
102
RTVSPropertyOp55
 70
     1
102
RTVSPropertyOp56
 70
     1
102
RTVSPropertyOp57
 70
     1
102
RTVSPropertyOp58
 70
     1
102
RTVSPropertyOp59
 70
     1
102
RTVSPropertyOp60
 70
     1
102
RTVSPropertyOp61
 70
     1
102
RTVSPropertyOp62
 70
     1
  0
XRECORD
  5
5F2
102
{ACAD_REACTORS
330
5F1
102
}
330
5F1
100
AcDbXrecord
280
     1
102
RTVSPost2010Prop28
280
     0
102
RTVSPost2010PropOp28
 70
     1
102
RTVSPost2010Prop29
280
     1
102
RTVSPost2010PropOp29
 70
     1
102
RTVSPost2010Prop30
280
     1
102
RTVSPost2010PropOp30
 70
     1
102
RTVSPost2010Prop31
280
     0
102
RTVSPost2010PropOp31
 70
     1
102
RTVSPost2010Prop32
280
     0
102
RTVSPost2010PropOp32
 70
     1
102
RTVSPost2010Prop33
280
     0
102
RTVSPost2010PropOp33
 70
     1
102
RTVSPost2010Prop34
280
     0
102
RTVSPost2010PropOp34
 70
     1
102
RTVSPost2010Prop35
280
     0
102
RTVSPost2010PropOp35
 70
     1
102
RTVSPost2010Prop36
280
     0
102
RTVSPost2010PropOp36
 70
     1
102
RTVSPost2010Prop37
 90
       50
102
RTVSPost2010PropOp37
 70
     1
102
RTVSPost2010Prop38
140
0.0
102
RTVSPost2010PropOp38
 70
     1
102
RTVSPost2010Prop39
140
1.0
102
RTVSPost2010PropOp39
 70
     1
102
RTVSPost2010Prop40
 90
        0
102
RTVSPost2010PropOp40
 70
     1
102
RTVSPost2010Prop41ColorIndex
 90
       18
102
RTVSPost2010Prop41ColorRGB
 90
        0
102
RTVSPost2010PropOp41
 70
     1
102
RTVSPost2010Prop42
 90
       50
102
RTVSPost2010PropOp42
 70
     1
102
RTVSPost2010Prop43
 90
        3
102
RTVSPost2010PropOp43
 70
     1
102
RTVSPost2010Prop44ColorIndex
 90
        5
102
RTVSPost2010Prop44ColorRGB
 90
      255
102
RTVSPost2010PropOp44
 70
     1
102
RTVSPost2010Prop45
280
     0
102
RTVSPost2010PropOp45
 70
     1
102
RTVSPost2010Prop46
 90
       50
102
RTVSPost2010PropOp46
 70
     1
102
RTVSPost2010Prop47
 90
       50
102
RTVSPost2010PropOp47
 70
     1
102
RTVSPost2010Prop48
 90
       50
102
RTVSPost2010PropOp48
 70
     1
102
RTVSPost2010Prop49
280
     0
102
RTVSPost2010PropOp49
 70
     1
102
RTVSPost2010Prop50
 90
       50
102
RTVSPost2010PropOp50
 70
     1
102
RTVSPost2010Prop51ColorIndex
 90
      256
102
RTVSPost2010Prop51ColorRGB
 90
-16777216
102
RTVSPost2010PropOp51
 70
     0
102
RTVSPost2010Prop52
140
1.0
102
RTVSPost2010PropOp52
 70
     0
102
RTVSPost2010Prop53
 90
        2
102
RTVSPost2010PropOp53
 70
     1
102
RTVSPost2010Prop54
  1
strokes_ogs.tif
102
RTVSPost2010PropOp54
 70
     1
102
RTVSPost2010Prop55
280
     0
102
RTVSPost2010PropOp55
 70
     1
102
RTVSPost2010Prop56
140
1.0
102
RTVSPost2010PropOp56
 70
     1
102
RTVSPost2010Prop57
140
1.0
102
RTVSPost2010PropOp57
 70
     1
102
RTVSPropertyOp0
 70
     1
102
RTVSPropertyOp1
 70
     1
102
RTVSPropertyOp2
 70
     1
102
RTVSPropertyOp3
 70
     1
102
RTVSPropertyOp4
 70
     1
102
RTVSPropertyOp5
 70
     1
102
RTVSPropertyOp6
 70
     1
102
RTVSPropertyOp7
 70
     1
102
RTVSPropertyOp8
 70
     1
102
RTVSPropertyOp9
 70
     1
102
RTVSPropertyOp10
 70
     1
102
RTVSPropertyOp11
 70
     1
102
RTVSPropertyOp12
 70
     1
102
RTVSPropertyOp13
 70
     1
102
RTVSPropertyOp14
 70
     1
102
RTVSPropertyOp15
 70
     1
102
RTVSPropertyOp16
 70
     1
102
RTVSPropertyOp17
 70
     1
102
RTVSPropertyOp18
 70
     1
102
RTVSPropertyOp19
 70
     1
102
RTVSPropertyOp20
 70
     1
102
RTVSPropertyOp21
 70
     1
102
RTVSPropertyOp22
 70
     1
102
RTVSPropertyOp23
 70
     1
102
RTVSPropertyOp24
 70
     1
102
RTVSPropertyOp25
 70
     1
102
RTVSPropertyOp26
 70
     1
102
RTVSPropertyOp27
 70
     1
102
RTVSPropertyOp28
 70
     1
102
RTVSPropertyOp29
 70
     1
102
RTVSPropertyOp30
 70
     1
102
RTVSPropertyOp31
 70
     1
102
RTVSPropertyOp32
 70
     1
102
RTVSPropertyOp33
 70
     1
102
RTVSPropertyOp34
 70
     1
102
RTVSPropertyOp35
 70
     1
102
RTVSPropertyOp36
 70
     1
102
RTVSPropertyOp37
 70
     1
102
RTVSPropertyOp38
 70
     1
102
RTVSPropertyOp39
 70
     1
102
RTVSPropertyOp40
 70
     1
102
RTVSPropertyOp41
 70
     1
102
RTVSPropertyOp42
 70
     1
102
RTVSPropertyOp43
 70
     1
102
RTVSPropertyOp44
 70
     1
102
RTVSPropertyOp45
 70
     1
102
RTVSPropertyOp46
 70
     1
102
RTVSPropertyOp47
 70
     1
102
RTVSPropertyOp48
 70
     1
102
RTVSPropertyOp49
 70
     1
102
RTVSPropertyOp50
 70
     1
102
RTVSPropertyOp51
 70
     0
102
RTVSPropertyOp52
 70
     0
102
RTVSPropertyOp53
 70
     1
102
RTVSPropertyOp54
 70
     1
102
RTVSPropertyOp55
 70
     1
102
RTVSPropertyOp56
 70
     1
102
RTVSPropertyOp57
 70
     1
102
RTVSPropertyOp58
 70
     1
102
RTVSPropertyOp59
 70
     1
102
RTVSPropertyOp60
 70
     1
102
RTVSPropertyOp61
 70
     1
102
RTVSPropertyOp62
 70
     1
  0
XRECORD
  5
5F4
102
{ACAD_REACTORS
330
5F3
102
}
330
5F3
100
AcDbXrecord
280
     1
102
RTVSPost2010Prop28
280
     0
102
RTVSPost2010PropOp28
 70
     1
102
RTVSPost2010Prop29
280
     1
102
RTVSPost2010PropOp29
 70
     1
102
RTVSPost2010Prop30
280
     1
102
RTVSPost2010PropOp30
 70
     1
102
RTVSPost2010Prop31
280
     0
102
RTVSPost2010PropOp31
 70
     1
102
RTVSPost2010Prop32
280
     0
102
RTVSPost2010PropOp32
 70
     1
102
RTVSPost2010Prop33
280
     0
102
RTVSPost2010PropOp33
 70
     1
102
RTVSPost2010Prop34
280
     0
102
RTVSPost2010PropOp34
 70
     1
102
RTVSPost2010Prop35
280
     0
102
RTVSPost2010PropOp35
 70
     1
102
RTVSPost2010Prop36
280
     0
102
RTVSPost2010PropOp36
 70
     1
102
RTVSPost2010Prop37
 90
       50
102
RTVSPost2010PropOp37
 70
     1
102
RTVSPost2010Prop38
140
0.0
102
RTVSPost2010PropOp38
 70
     1
102
RTVSPost2010Prop39
140
1.0
102
RTVSPost2010PropOp39
 70
     1
102
RTVSPost2010Prop40
 90
        0
102
RTVSPost2010PropOp40
 70
     1
102
RTVSPost2010Prop41ColorIndex
 90
       18
102
RTVSPost2010Prop41ColorRGB
 90
        0
102
RTVSPost2010PropOp41
 70
     1
102
RTVSPost2010Prop42
 90
       50
102
RTVSPost2010PropOp42
 70
     1
102
RTVSPost2010Prop43
 90
        3
102
RTVSPost2010PropOp43
 70
     1
102
RTVSPost2010Prop44ColorIndex
 90
        5
102
RTVSPost2010Prop44ColorRGB
 90
      255
102
RTVSPost2010PropOp44
 70
     1
102
RTVSPost2010Prop45
280
     0
102
RTVSPost2010PropOp45
 70
     1
102
RTVSPost2010Prop46
 90
       50
102
RTVSPost2010PropOp46
 70
     1
102
RTVSPost2010Prop47
 90
       50
102
RTVSPost2010PropOp47
 70
     1
102
RTVSPost2010Prop48
 90
       50
102
RTVSPost2010PropOp48
 70
     1
102
RTVSPost2010Prop49
280
     0
102
RTVSPost2010PropOp49
 70
     1
102
RTVSPost2010Prop50
 90
       50
102
RTVSPost2010PropOp50
 70
     1
102
RTVSPost2010Prop51ColorIndex
 90
      256
102
RTVSPost2010Prop51ColorRGB
 90
-16777216
102
RTVSPost2010PropOp51
 70
     0
102
RTVSPost2010Prop52
140
1.0
102
RTVSPost2010PropOp52
 70
     0
102
RTVSPost2010Prop53
 90
        2
102
RTVSPost2010PropOp53
 70
     1
102
RTVSPost2010Prop54
  1
strokes_ogs.tif
102
RTVSPost2010PropOp54
 70
     1
102
RTVSPost2010Prop55
280
     0
102
RTVSPost2010PropOp55
 70
     1
102
RTVSPost2010Prop56
140
1.0
102
RTVSPost2010PropOp56
 70
     1
102
RTVSPost2010Prop57
140
1.0
102
RTVSPost2010PropOp57
 70
     1
102
RTVSPropertyOp0
 70
     1
102
RTVSPropertyOp1
 70
     1
102
RTVSPropertyOp2
 70
     1
102
RTVSPropertyOp3
 70
     1
102
RTVSPropertyOp4
 70
     1
102
RTVSPropertyOp5
 70
     1
102
RTVSPropertyOp6
 70
     1
102
RTVSPropertyOp7
 70
     1
102
RTVSPropertyOp8
 70
     1
102
RTVSPropertyOp9
 70
     1
102
RTVSPropertyOp10
 70
     1
102
RTVSPropertyOp11
 70
     1
102
RTVSPropertyOp12
 70
     1
102
RTVSPropertyOp13
 70
     1
102
RTVSPropertyOp14
 70
     1
102
RTVSPropertyOp15
 70
     1
102
RTVSPropertyOp16
 70
     1
102
RTVSPropertyOp17
 70
     1
102
RTVSPropertyOp18
 70
     1
102
RTVSPropertyOp19
 70
     1
102
RTVSPropertyOp20
 70
     1
102
RTVSPropertyOp21
 70
     1
102
RTVSPropertyOp22
 70
     1
102
RTVSPropertyOp23
 70
     1
102
RTVSPropertyOp24
 70
     1
102
RTVSPropertyOp25
 70
     1
102
RTVSPropertyOp26
 70
     1
102
RTVSPropertyOp27
 70
     1
102
RTVSPropertyOp28
 70
     1
102
RTVSPropertyOp29
 70
     1
102
RTVSPropertyOp30
 70
     1
102
RTVSPropertyOp31
 70
     1
102
RTVSPropertyOp32
 70
     1
102
RTVSPropertyOp33
 70
     1
102
RTVSPropertyOp34
 70
     1
102
RTVSPropertyOp35
 70
     1
102
RTVSPropertyOp36
 70
     1
102
RTVSPropertyOp37
 70
     1
102
RTVSPropertyOp38
 70
     1
102
RTVSPropertyOp39
 70
     1
102
RTVSPropertyOp40
 70
     1
102
RTVSPropertyOp41
 70
     1
102
RTVSPropertyOp42
 70
     1
102
RTVSPropertyOp43
 70
     1
102
RTVSPropertyOp44
 70
     1
102
RTVSPropertyOp45
 70
     1
102
RTVSPropertyOp46
 70
     1
102
RTVSPropertyOp47
 70
     1
102
RTVSPropertyOp48
 70
     1
102
RTVSPropertyOp49
 70
     1
102
RTVSPropertyOp50
 70
     1
102
RTVSPropertyOp51
 70
     0
102
RTVSPropertyOp52
 70
     0
102
RTVSPropertyOp53
 70
     1
102
RTVSPropertyOp54
 70
     1
102
RTVSPropertyOp55
 70
     1
102
RTVSPropertyOp56
 70
     1
102
RTVSPropertyOp57
 70
     1
102
RTVSPropertyOp58
 70
     1
102
RTVSPropertyOp59
 70
     1
102
RTVSPropertyOp60
 70
     1
102
RTVSPropertyOp61
 70
     1
102
RTVSPropertyOp62
 70
     1
  0
XRECORD
  5
5F6
102
{ACAD_REACTORS
330
5F5
102
}
330
5F5
100
AcDbXrecord
280
     1
102
RTVSPost2010Prop28
280
     0
102
RTVSPost2010PropOp28
 70
     1
102
RTVSPost2010Prop29
280
     1
102
RTVSPost2010PropOp29
 70
     1
102
RTVSPost2010Prop30
280
     1
102
RTVSPost2010PropOp30
 70
     1
102
RTVSPost2010Prop31
280
     0
102
RTVSPost2010PropOp31
 70
     1
102
RTVSPost2010Prop32
280
     0
102
RTVSPost2010PropOp32
 70
     1
102
RTVSPost2010Prop33
280
     0
102
RTVSPost2010PropOp33
 70
     1
102
RTVSPost2010Prop34
280
     0
102
RTVSPost2010PropOp34
 70
     1
102
RTVSPost2010Prop35
280
     0
102
RTVSPost2010PropOp35
 70
     1
102
RTVSPost2010Prop36
280
     0
102
RTVSPost2010PropOp36
 70
     1
102
RTVSPost2010Prop37
 90
       50
102
RTVSPost2010PropOp37
 70
     1
102
RTVSPost2010Prop38
140
0.0
102
RTVSPost2010PropOp38
 70
     1
102
RTVSPost2010Prop39
140
1.0
102
RTVSPost2010PropOp39
 70
     1
102
RTVSPost2010Prop40
 90
        0
102
RTVSPost2010PropOp40
 70
     1
102
RTVSPost2010Prop41ColorIndex
 90
       18
102
RTVSPost2010Prop41ColorRGB
 90
        0
102
RTVSPost2010PropOp41
 70
     1
102
RTVSPost2010Prop42
 90
       50
102
RTVSPost2010PropOp42
 70
     1
102
RTVSPost2010Prop43
 90
        3
102
RTVSPost2010PropOp43
 70
     1
102
RTVSPost2010Prop44ColorIndex
 90
        5
102
RTVSPost2010Prop44ColorRGB
 90
      255
102
RTVSPost2010PropOp44
 70
     1
102
RTVSPost2010Prop45
280
     0
102
RTVSPost2010PropOp45
 70
     1
102
RTVSPost2010Prop46
 90
       50
102
RTVSPost2010PropOp46
 70
     1
102
RTVSPost2010Prop47
 90
       50
102
RTVSPost2010PropOp47
 70
     1
102
RTVSPost2010Prop48
 90
       50
102
RTVSPost2010PropOp48
 70
     1
102
RTVSPost2010Prop49
280
     0
102
RTVSPost2010PropOp49
 70
     1
102
RTVSPost2010Prop50
 90
       50
102
RTVSPost2010PropOp50
 70
     1
102
RTVSPost2010Prop51ColorIndex
 90
      256
102
RTVSPost2010Prop51ColorRGB
 90
-16777216
102
RTVSPost2010PropOp51
 70
     0
102
RTVSPost2010Prop52
140
1.0
102
RTVSPost2010PropOp52
 70
     0
102
RTVSPost2010Prop53
 90
        2
102
RTVSPost2010PropOp53
 70
     1
102
RTVSPost2010Prop54
  1
strokes_ogs.tif
102
RTVSPost2010PropOp54
 70
     1
102
RTVSPost2010Prop55
280
     0
102
RTVSPost2010PropOp55
 70
     1
102
RTVSPost2010Prop56
140
1.0
102
RTVSPost2010PropOp56
 70
     1
102
RTVSPost2010Prop57
140
1.0
102
RTVSPost2010PropOp57
 70
     1
102
RTVSPropertyOp0
 70
     1
102
RTVSPropertyOp1
 70
     1
102
RTVSPropertyOp2
 70
     1
102
RTVSPropertyOp3
 70
     1
102
RTVSPropertyOp4
 70
     1
102
RTVSPropertyOp5
 70
     1
102
RTVSPropertyOp6
 70
     1
102
RTVSPropertyOp7
 70
     1
102
RTVSPropertyOp8
 70
     1
102
RTVSPropertyOp9
 70
     1
102
RTVSPropertyOp10
 70
     1
102
RTVSPropertyOp11
 70
     1
102
RTVSPropertyOp12
 70
     1
102
RTVSPropertyOp13
 70
     1
102
RTVSPropertyOp14
 70
     1
102
RTVSPropertyOp15
 70
     1
102
RTVSPropertyOp16
 70
     1
102
RTVSPropertyOp17
 70
     1
102
RTVSPropertyOp18
 70
     1
102
RTVSPropertyOp19
 70
     1
102
RTVSPropertyOp20
 70
     1
102
RTVSPropertyOp21
 70
     1
102
RTVSPropertyOp22
 70
     1
102
RTVSPropertyOp23
 70
     1
102
RTVSPropertyOp24
 70
     1
102
RTVSPropertyOp25
 70
     1
102
RTVSPropertyOp26
 70
     1
102
RTVSPropertyOp27
 70
     1
102
RTVSPropertyOp28
 70
     1
102
RTVSPropertyOp29
 70
     1
102
RTVSPropertyOp30
 70
     1
102
RTVSPropertyOp31
 70
     1
102
RTVSPropertyOp32
 70
     1
102
RTVSPropertyOp33
 70
     1
102
RTVSPropertyOp34
 70
     1
102
RTVSPropertyOp35
 70
     1
102
RTVSPropertyOp36
 70
     1
102
RTVSPropertyOp37
 70
     1
102
RTVSPropertyOp38
 70
     1
102
RTVSPropertyOp39
 70
     1
102
RTVSPropertyOp40
 70
     1
102
RTVSPropertyOp41
 70
     1
102
RTVSPropertyOp42
 70
     1
102
RTVSPropertyOp43
 70
     1
102
RTVSPropertyOp44
 70
     1
102
RTVSPropertyOp45
 70
     1
102
RTVSPropertyOp46
 70
     1
102
RTVSPropertyOp47
 70
     1
102
RTVSPropertyOp48
 70
     1
102
RTVSPropertyOp49
 70
     1
102
RTVSPropertyOp50
 70
     1
102
RTVSPropertyOp51
 70
     0
102
RTVSPropertyOp52
 70
     0
102
RTVSPropertyOp53
 70
     1
102
RTVSPropertyOp54
 70
     1
102
RTVSPropertyOp55
 70
     1
102
RTVSPropertyOp56
 70
     1
102
RTVSPropertyOp57
 70
     1
102
RTVSPropertyOp58
 70
     1
102
RTVSPropertyOp59
 70
     1
102
RTVSPropertyOp60
 70
     1
102
RTVSPropertyOp61
 70
     1
102
RTVSPropertyOp62
 70
     1
  0
XRECORD
  5
5FE
102
{ACAD_REACTORS
330
5FD
102
}
330
5FD
100
AcDbXrecord
280
     1
102
RTVSPost2010Prop28
280
     0
102
RTVSPost2010PropOp28
 70
     1
102
RTVSPost2010Prop29
280
     1
102
RTVSPost2010PropOp29
 70
     1
102
RTVSPost2010Prop30
280
     1
102
RTVSPost2010PropOp30
 70
     1
102
RTVSPost2010Prop31
280
     0
102
RTVSPost2010PropOp31
 70
     1
102
RTVSPost2010Prop32
280
     0
102
RTVSPost2010PropOp32
 70
     1
102
RTVSPost2010Prop33
280
     0
102
RTVSPost2010PropOp33
 70
     1
102
RTVSPost2010Prop34
280
     0
102
RTVSPost2010PropOp34
 70
     1
102
RTVSPost2010Prop35
280
     0
102
RTVSPost2010PropOp35
 70
     1
102
RTVSPost2010Prop36
280
     0
102
RTVSPost2010PropOp36
 70
     1
102
RTVSPost2010Prop37
 90
       50
102
RTVSPost2010PropOp37
 70
     1
102
RTVSPost2010Prop38
140
0.0
102
RTVSPost2010PropOp38
 70
     1
102
RTVSPost2010Prop39
140
1.0
102
RTVSPost2010PropOp39
 70
     1
102
RTVSPost2010Prop40
 90
        0
102
RTVSPost2010PropOp40
 70
     1
102
RTVSPost2010Prop41ColorIndex
 90
       18
102
RTVSPost2010Prop41ColorRGB
 90
        0
102
RTVSPost2010PropOp41
 70
     1
102
RTVSPost2010Prop42
 90
       50
102
RTVSPost2010PropOp42
 70
     1
102
RTVSPost2010Prop43
 90
        3
102
RTVSPost2010PropOp43
 70
     1
102
RTVSPost2010Prop44ColorIndex
 90
        5
102
RTVSPost2010Prop44ColorRGB
 90
      255
102
RTVSPost2010PropOp44
 70
     1
102
RTVSPost2010Prop45
280
     0
102
RTVSPost2010PropOp45
 70
     1
102
RTVSPost2010Prop46
 90
       50
102
RTVSPost2010PropOp46
 70
     1
102
RTVSPost2010Prop47
 90
       50
102
RTVSPost2010PropOp47
 70
     1
102
RTVSPost2010Prop48
 90
       50
102
RTVSPost2010PropOp48
 70
     1
102
RTVSPost2010Prop49
280
     0
102
RTVSPost2010PropOp49
 70
     1
102
RTVSPost2010Prop50
 90
       50
102
RTVSPost2010PropOp50
 70
     1
102
RTVSPost2010Prop51ColorIndex
 90
      256
102
RTVSPost2010Prop51ColorRGB
 90
-16777216
102
RTVSPost2010PropOp51
 70
     0
102
RTVSPost2010Prop52
140
1.0
102
RTVSPost2010PropOp52
 70
     0
102
RTVSPost2010Prop53
 90
        2
102
RTVSPost2010PropOp53
 70
     1
102
RTVSPost2010Prop54
  1
strokes_ogs.tif
102
RTVSPost2010PropOp54
 70
     1
102
RTVSPost2010Prop55
280
     0
102
RTVSPost2010PropOp55
 70
     1
102
RTVSPost2010Prop56
140
1.0
102
RTVSPost2010PropOp56
 70
     1
102
RTVSPost2010Prop57
140
1.0
102
RTVSPost2010PropOp57
 70
     1
102
RTVSPropertyOp0
 70
     1
102
RTVSPropertyOp1
 70
     1
102
RTVSPropertyOp2
 70
     1
102
RTVSPropertyOp3
 70
     1
102
RTVSPropertyOp4
 70
     1
102
RTVSPropertyOp5
 70
     1
102
RTVSPropertyOp6
 70
     1
102
RTVSPropertyOp7
 70
     1
102
RTVSPropertyOp8
 70
     1
102
RTVSPropertyOp9
 70
     1
102
RTVSPropertyOp10
 70
     1
102
RTVSPropertyOp11
 70
     1
102
RTVSPropertyOp12
 70
     1
102
RTVSPropertyOp13
 70
     1
102
RTVSPropertyOp14
 70
     1
102
RTVSPropertyOp15
 70
     1
102
RTVSPropertyOp16
 70
     1
102
RTVSPropertyOp17
 70
     1
102
RTVSPropertyOp18
 70
     1
102
RTVSPropertyOp19
 70
     1
102
RTVSPropertyOp20
 70
     1
102
RTVSPropertyOp21
 70
     1
102
RTVSPropertyOp22
 70
     1
102
RTVSPropertyOp23
 70
     1
102
RTVSPropertyOp24
 70
     1
102
RTVSPropertyOp25
 70
     1
102
RTVSPropertyOp26
 70
     1
102
RTVSPropertyOp27
 70
     1
102
RTVSPropertyOp28
 70
     1
102
RTVSPropertyOp29
 70
     1
102
RTVSPropertyOp30
 70
     1
102
RTVSPropertyOp31
 70
     1
102
RTVSPropertyOp32
 70
     1
102
RTVSPropertyOp33
 70
     1
102
RTVSPropertyOp34
 70
     1
102
RTVSPropertyOp35
 70
     1
102
RTVSPropertyOp36
 70
     1
102
RTVSPropertyOp37
 70
     1
102
RTVSPropertyOp38
 70
     1
102
RTVSPropertyOp39
 70
     1
102
RTVSPropertyOp40
 70
     1
102
RTVSPropertyOp41
 70
     1
102
RTVSPropertyOp42
 70
     1
102
RTVSPropertyOp43
 70
     1
102
RTVSPropertyOp44
 70
     1
102
RTVSPropertyOp45
 70
     1
102
RTVSPropertyOp46
 70
     1
102
RTVSPropertyOp47
 70
     1
102
RTVSPropertyOp48
 70
     1
102
RTVSPropertyOp49
 70
     1
102
RTVSPropertyOp50
 70
     1
102
RTVSPropertyOp51
 70
     0
102
RTVSPropertyOp52
 70
     0
102
RTVSPropertyOp53
 70
     1
102
RTVSPropertyOp54
 70
     1
102
RTVSPropertyOp55
 70
     1
102
RTVSPropertyOp56
 70
     1
102
RTVSPropertyOp57
 70
     1
102
RTVSPropertyOp58
 70
     1
102
RTVSPropertyOp59
 70
     1
102
RTVSPropertyOp60
 70
     1
102
RTVSPropertyOp61
 70
     1
102
RTVSPropertyOp62
 70
     1
  0
XRECORD
  5
610
102
{ACAD_REACTORS
330
60F
102
}
330
60F
100
AcDbXrecord
280
     1
102
RTVSPost2010Prop28
280
     0
102
RTVSPost2010PropOp28
 70
     1
102
RTVSPost2010Prop29
280
     1
102
RTVSPost2010PropOp29
 70
     1
102
RTVSPost2010Prop30
280
     1
102
RTVSPost2010PropOp30
 70
     1
102
RTVSPost2010Prop31
280
     0
102
RTVSPost2010PropOp31
 70
     1
102
RTVSPost2010Prop32
280
     0
102
RTVSPost2010PropOp32
 70
     1
102
RTVSPost2010Prop33
280
     0
102
RTVSPost2010PropOp33
 70
     1
102
RTVSPost2010Prop34
280
     0
102
RTVSPost2010PropOp34
 70
     1
102
RTVSPost2010Prop35
280
     0
102
RTVSPost2010PropOp35
 70
     1
102
RTVSPost2010Prop36
280
     0
102
RTVSPost2010PropOp36
 70
     1
102
RTVSPost2010Prop37
 90
       50
102
RTVSPost2010PropOp37
 70
     1
102
RTVSPost2010Prop38
140
0.0
102
RTVSPost2010PropOp38
 70
     1
102
RTVSPost2010Prop39
140
1.0
102
RTVSPost2010PropOp39
 70
     1
102
RTVSPost2010Prop40
 90
        0
102
RTVSPost2010PropOp40
 70
     1
102
RTVSPost2010Prop41ColorIndex
 90
       18
102
RTVSPost2010Prop41ColorRGB
 90
        0
102
RTVSPost2010PropOp41
 70
     1
102
RTVSPost2010Prop42
 90
       50
102
RTVSPost2010PropOp42
 70
     1
102
RTVSPost2010Prop43
 90
        3
102
RTVSPost2010PropOp43
 70
     1
102
RTVSPost2010Prop44ColorIndex
 90
        5
102
RTVSPost2010Prop44ColorRGB
 90
      255
102
RTVSPost2010PropOp44
 70
     1
102
RTVSPost2010Prop45
280
     0
102
RTVSPost2010PropOp45
 70
     1
102
RTVSPost2010Prop46
 90
       50
102
RTVSPost2010PropOp46
 70
     1
102
RTVSPost2010Prop47
 90
       50
102
RTVSPost2010PropOp47
 70
     1
102
RTVSPost2010Prop48
 90
       50
102
RTVSPost2010PropOp48
 70
     1
102
RTVSPost2010Prop49
280
     0
102
RTVSPost2010PropOp49
 70
     1
102
RTVSPost2010Prop50
 90
       50
102
RTVSPost2010PropOp50
 70
     1
102
RTVSPost2010Prop51ColorIndex
 90
      256
102
RTVSPost2010Prop51ColorRGB
 90
-16777216
102
RTVSPost2010PropOp51
 70
     0
102
RTVSPost2010Prop52
140
1.0
102
RTVSPost2010PropOp52
 70
     0
102
RTVSPost2010Prop53
 90
        2
102
RTVSPost2010PropOp53
 70
     1
102
RTVSPost2010Prop54
  1
strokes_ogs.tif
102
RTVSPost2010PropOp54
 70
     1
102
RTVSPost2010Prop55
280
     0
102
RTVSPost2010PropOp55
 70
     1
102
RTVSPost2010Prop56
140
1.0
102
RTVSPost2010PropOp56
 70
     1
102
RTVSPost2010Prop57
140
1.0
102
RTVSPost2010PropOp57
 70
     1
102
RTVSPropertyOp0
 70
     0
102
RTVSPropertyOp1
 70
     0
102
RTVSPropertyOp2
 70
     0
102
RTVSPropertyOp3
 70
     0
102
RTVSPropertyOp4
 70
     0
102
RTVSPropertyOp5
 70
     0
102
RTVSPropertyOp6
 70
     0
102
RTVSPropertyOp7
 70
     0
102
RTVSPropertyOp8
 70
     0
102
RTVSPropertyOp9
 70
     0
102
RTVSPropertyOp10
 70
     0
102
RTVSPropertyOp11
 70
     0
102
RTVSPropertyOp12
 70
     0
102
RTVSPropertyOp13
 70
     0
102
RTVSPropertyOp14
 70
     2
102
RTVSPropertyOp15
 70
     0
102
RTVSPropertyOp16
 70
     0
102
RTVSPropertyOp17
 70
     0
102
RTVSPropertyOp18
 70
     0
102
RTVSPropertyOp19
 70
     0
102
RTVSPropertyOp20
 70
     0
102
RTVSPropertyOp21
 70
     0
102
RTVSPropertyOp22
 70
     0
102
RTVSPropertyOp23
 70
     0
102
RTVSPropertyOp24
 70
     0
102
RTVSPropertyOp25
 70
     0
102
RTVSPropertyOp26
 70
     0
102
RTVSPropertyOp27
 70
     0
102
RTVSPropertyOp28
 70
     1
102
RTVSPropertyOp29
 70
     1
102
RTVSPropertyOp30
 70
     1
102
RTVSPropertyOp31
 70
     1
102
RTVSPropertyOp32
 70
     1
102
RTVSPropertyOp33
 70
     1
102
RTVSPropertyOp34
 70
     1
102
RTVSPropertyOp35
 70
     1
102
RTVSPropertyOp36
 70
     1
102
RTVSPropertyOp37
 70
     1
102
RTVSPropertyOp38
 70
     1
102
RTVSPropertyOp39
 70
     1
102
RTVSPropertyOp40
 70
     1
102
RTVSPropertyOp41
 70
     1
102
RTVSPropertyOp42
 70
     1
102
RTVSPropertyOp43
 70
     1
102
RTVSPropertyOp44
 70
     1
102
RTVSPropertyOp45
 70
     1
102
RTVSPropertyOp46
 70
     1
102
RTVSPropertyOp47
 70
     1
102
RTVSPropertyOp48
 70
     1
102
RTVSPropertyOp49
 70
     1
102
RTVSPropertyOp50
 70
     1
102
RTVSPropertyOp51
 70
     0
102
RTVSPropertyOp52
 70
     0
102
RTVSPropertyOp53
 70
     1
102
RTVSPropertyOp54
 70
     1
102
RTVSPropertyOp55
 70
     1
102
RTVSPropertyOp56
 70
     1
102
RTVSPropertyOp57
 70
     1
102
RTVSPropertyOp58
 70
     1
102
RTVSPropertyOp59
 70
     1
102
RTVSPropertyOp60
 70
     1
102
RTVSPropertyOp61
 70
     1
102
RTVSPropertyOp62
 70
     1
  0
XRECORD
  5
60A
102
{ACAD_REACTORS
330
609
102
}
330
609
100
AcDbXrecord
280
     1
102
RTVSPost2010Prop28
280
     0
102
RTVSPost2010PropOp28
 70
     1
102
RTVSPost2010Prop29
280
     1
102
RTVSPost2010PropOp29
 70
     1
102
RTVSPost2010Prop30
280
     1
102
RTVSPost2010PropOp30
 70
     1
102
RTVSPost2010Prop31
280
     0
102
RTVSPost2010PropOp31
 70
     1
102
RTVSPost2010Prop32
280
     0
102
RTVSPost2010PropOp32
 70
     1
102
RTVSPost2010Prop33
280
     0
102
RTVSPost2010PropOp33
 70
     1
102
RTVSPost2010Prop34
280
     0
102
RTVSPost2010PropOp34
 70
     1
102
RTVSPost2010Prop35
280
     0
102
RTVSPost2010PropOp35
 70
     1
102
RTVSPost2010Prop36
280
     0
102
RTVSPost2010PropOp36
 70
     1
102
RTVSPost2010Prop37
 90
       50
102
RTVSPost2010PropOp37
 70
     1
102
RTVSPost2010Prop38
140
0.0
102
RTVSPost2010PropOp38
 70
     1
102
RTVSPost2010Prop39
140
1.0
102
RTVSPost2010PropOp39
 70
     1
102
RTVSPost2010Prop40
 90
        0
102
RTVSPost2010PropOp40
 70
     1
102
RTVSPost2010Prop41ColorIndex
 90
       18
102
RTVSPost2010Prop41ColorRGB
 90
        0
102
RTVSPost2010PropOp41
 70
     1
102
RTVSPost2010Prop42
 90
       50
102
RTVSPost2010PropOp42
 70
     1
102
RTVSPost2010Prop43
 90
        3
102
RTVSPost2010PropOp43
 70
     1
102
RTVSPost2010Prop44ColorIndex
 90
        5
102
RTVSPost2010Prop44ColorRGB
 90
      255
102
RTVSPost2010PropOp44
 70
     1
102
RTVSPost2010Prop45
280
     0
102
RTVSPost2010PropOp45
 70
     1
102
RTVSPost2010Prop46
 90
       50
102
RTVSPost2010PropOp46
 70
     1
102
RTVSPost2010Prop47
 90
       50
102
RTVSPost2010PropOp47
 70
     1
102
RTVSPost2010Prop48
 90
       50
102
RTVSPost2010PropOp48
 70
     1
102
RTVSPost2010Prop49
280
     0
102
RTVSPost2010PropOp49
 70
     1
102
RTVSPost2010Prop50
 90
       50
102
RTVSPost2010PropOp50
 70
     1
102
RTVSPost2010Prop51ColorIndex
 90
      256
102
RTVSPost2010Prop51ColorRGB
 90
-16777216
102
RTVSPost2010PropOp51
 70
     0
102
RTVSPost2010Prop52
140
1.0
102
RTVSPost2010PropOp52
 70
     0
102
RTVSPost2010Prop53
 90
        2
102
RTVSPost2010PropOp53
 70
     1
102
RTVSPost2010Prop54
  1
strokes_ogs.tif
102
RTVSPost2010PropOp54
 70
     1
102
RTVSPost2010Prop55
280
     0
102
RTVSPost2010PropOp55
 70
     1
102
RTVSPost2010Prop56
140
1.0
102
RTVSPost2010PropOp56
 70
     1
102
RTVSPost2010Prop57
140
1.0
102
RTVSPost2010PropOp57
 70
     1
102
RTVSPropertyOp0
 70
     1
102
RTVSPropertyOp1
 70
     1
102
RTVSPropertyOp2
 70
     1
102
RTVSPropertyOp3
 70
     1
102
RTVSPropertyOp4
 70
     1
102
RTVSPropertyOp5
 70
     1
102
RTVSPropertyOp6
 70
     1
102
RTVSPropertyOp7
 70
     1
102
RTVSPropertyOp8
 70
     1
102
RTVSPropertyOp9
 70
     1
102
RTVSPropertyOp10
 70
     1
102
RTVSPropertyOp11
 70
     1
102
RTVSPropertyOp12
 70
     1
102
RTVSPropertyOp13
 70
     1
102
RTVSPropertyOp14
 70
     1
102
RTVSPropertyOp15
 70
     1
102
RTVSPropertyOp16
 70
     1
102
RTVSPropertyOp17
 70
     1
102
RTVSPropertyOp18
 70
     1
102
RTVSPropertyOp19
 70
     1
102
RTVSPropertyOp20
 70
     1
102
RTVSPropertyOp21
 70
     1
102
RTVSPropertyOp22
 70
     1
102
RTVSPropertyOp23
 70
     1
102
RTVSPropertyOp24
 70
     1
102
RTVSPropertyOp25
 70
     1
102
RTVSPropertyOp26
 70
     1
102
RTVSPropertyOp27
 70
     1
102
RTVSPropertyOp28
 70
     1
102
RTVSPropertyOp29
 70
     1
102
RTVSPropertyOp30
 70
     1
102
RTVSPropertyOp31
 70
     1
102
RTVSPropertyOp32
 70
     1
102
RTVSPropertyOp33
 70
     1
102
RTVSPropertyOp34
 70
     1
102
RTVSPropertyOp35
 70
     1
102
RTVSPropertyOp36
 70
     1
102
RTVSPropertyOp37
 70
     1
102
RTVSPropertyOp38
 70
     1
102
RTVSPropertyOp39
 70
     1
102
RTVSPropertyOp40
 70
     1
102
RTVSPropertyOp41
 70
     1
102
RTVSPropertyOp42
 70
     1
102
RTVSPropertyOp43
 70
     1
102
RTVSPropertyOp44
 70
     1
102
RTVSPropertyOp45
 70
     1
102
RTVSPropertyOp46
 70
     1
102
RTVSPropertyOp47
 70
     1
102
RTVSPropertyOp48
 70
     1
102
RTVSPropertyOp49
 70
     1
102
RTVSPropertyOp50
 70
     1
102
RTVSPropertyOp51
 70
     0
102
RTVSPropertyOp52
 70
     0
102
RTVSPropertyOp53
 70
     1
102
RTVSPropertyOp54
 70
     1
102
RTVSPropertyOp55
 70
     1
102
RTVSPropertyOp56
 70
     1
102
RTVSPropertyOp57
 70
     1
102
RTVSPropertyOp58
 70
     1
102
RTVSPropertyOp59
 70
     1
102
RTVSPropertyOp60
 70
     1
102
RTVSPropertyOp61
 70
     1
102
RTVSPropertyOp62
 70
     1
  0
XRECORD
  5
612
102
{ACAD_REACTORS
330
611
102
}
330
611
100
AcDbXrecord
280
     1
102
RTVSPost2010Prop28
280
     0
102
RTVSPost2010PropOp28
 70
     1
102
RTVSPost2010Prop29
280
     1
102
RTVSPost2010PropOp29
 70
     1
102
RTVSPost2010Prop30
280
     1
102
RTVSPost2010PropOp30
 70
     1
102
RTVSPost2010Prop31
280
     0
102
RTVSPost2010PropOp31
 70
     1
102
RTVSPost2010Prop32
280
     0
102
RTVSPost2010PropOp32
 70
     1
102
RTVSPost2010Prop33
280
     0
102
RTVSPost2010PropOp33
 70
     1
102
RTVSPost2010Prop34
280
     0
102
RTVSPost2010PropOp34
 70
     1
102
RTVSPost2010Prop35
280
     0
102
RTVSPost2010PropOp35
 70
     1
102
RTVSPost2010Prop36
280
     0
102
RTVSPost2010PropOp36
 70
     1
102
RTVSPost2010Prop37
 90
       50
102
RTVSPost2010PropOp37
 70
     1
102
RTVSPost2010Prop38
140
0.0
102
RTVSPost2010PropOp38
 70
     1
102
RTVSPost2010Prop39
140
1.0
102
RTVSPost2010PropOp39
 70
     1
102
RTVSPost2010Prop40
 90
        0
102
RTVSPost2010PropOp40
 70
     1
102
RTVSPost2010Prop41ColorIndex
 90
       18
102
RTVSPost2010Prop41ColorRGB
 90
        0
102
RTVSPost2010PropOp41
 70
     1
102
RTVSPost2010Prop42
 90
       50
102
RTVSPost2010PropOp42
 70
     1
102
RTVSPost2010Prop43
 90
        3
102
RTVSPost2010PropOp43
 70
     1
102
RTVSPost2010Prop44ColorIndex
 90
        5
102
RTVSPost2010Prop44ColorRGB
 90
      255
102
RTVSPost2010PropOp44
 70
     1
102
RTVSPost2010Prop45
280
     0
102
RTVSPost2010PropOp45
 70
     1
102
RTVSPost2010Prop46
 90
       50
102
RTVSPost2010PropOp46
 70
     1
102
RTVSPost2010Prop47
 90
       50
102
RTVSPost2010PropOp47
 70
     1
102
RTVSPost2010Prop48
 90
       50
102
RTVSPost2010PropOp48
 70
     1
102
RTVSPost2010Prop49
280
     0
102
RTVSPost2010PropOp49
 70
     1
102
RTVSPost2010Prop50
 90
       50
102
RTVSPost2010PropOp50
 70
     1
102
RTVSPost2010Prop51ColorIndex
 90
      256
102
RTVSPost2010Prop51ColorRGB
 90
-16777216
102
RTVSPost2010PropOp51
 70
     0
102
RTVSPost2010Prop52
140
1.0
102
RTVSPost2010PropOp52
 70
     0
102
RTVSPost2010Prop53
 90
        2
102
RTVSPost2010PropOp53
 70
     1
102
RTVSPost2010Prop54
  1
strokes_ogs.tif
102
RTVSPost2010PropOp54
 70
     1
102
RTVSPost2010Prop55
280
     0
102
RTVSPost2010PropOp55
 70
     1
102
RTVSPost2010Prop56
140
1.0
102
RTVSPost2010PropOp56
 70
     1
102
RTVSPost2010Prop57
140
1.0
102
RTVSPost2010PropOp57
 70
     1
102
RTVSPropertyOp0
 70
     0
102
RTVSPropertyOp1
 70
     0
102
RTVSPropertyOp2
 70
     0
102
RTVSPropertyOp3
 70
     0
102
RTVSPropertyOp4
 70
     0
102
RTVSPropertyOp5
 70
     0
102
RTVSPropertyOp6
 70
     0
102
RTVSPropertyOp7
 70
     0
102
RTVSPropertyOp8
 70
     0
102
RTVSPropertyOp9
 70
     0
102
RTVSPropertyOp10
 70
     0
102
RTVSPropertyOp11
 70
     0
102
RTVSPropertyOp12
 70
     0
102
RTVSPropertyOp13
 70
     0
102
RTVSPropertyOp14
 70
     2
102
RTVSPropertyOp15
 70
     0
102
RTVSPropertyOp16
 70
     0
102
RTVSPropertyOp17
 70
     0
102
RTVSPropertyOp18
 70
     0
102
RTVSPropertyOp19
 70
     0
102
RTVSPropertyOp20
 70
     0
102
RTVSPropertyOp21
 70
     0
102
RTVSPropertyOp22
 70
     0
102
RTVSPropertyOp23
 70
     0
102
RTVSPropertyOp24
 70
     0
102
RTVSPropertyOp25
 70
     0
102
RTVSPropertyOp26
 70
     0
102
RTVSPropertyOp27
 70
     0
102
RTVSPropertyOp28
 70
     1
102
RTVSPropertyOp29
 70
     1
102
RTVSPropertyOp30
 70
     1
102
RTVSPropertyOp31
 70
     1
102
RTVSPropertyOp32
 70
     1
102
RTVSPropertyOp33
 70
     1
102
RTVSPropertyOp34
 70
     1
102
RTVSPropertyOp35
 70
     1
102
RTVSPropertyOp36
 70
     1
102
RTVSPropertyOp37
 70
     1
102
RTVSPropertyOp38
 70
     1
102
RTVSPropertyOp39
 70
     1
102
RTVSPropertyOp40
 70
     1
102
RTVSPropertyOp41
 70
     1
102
RTVSPropertyOp42
 70
     1
102
RTVSPropertyOp43
 70
     1
102
RTVSPropertyOp44
 70
     1
102
RTVSPropertyOp45
 70
     1
102
RTVSPropertyOp46
 70
     1
102
RTVSPropertyOp47
 70
     1
102
RTVSPropertyOp48
 70
     1
102
RTVSPropertyOp49
 70
     1
102
RTVSPropertyOp50
 70
     1
102
RTVSPropertyOp51
 70
     0
102
RTVSPropertyOp52
 70
     0
102
RTVSPropertyOp53
 70
     1
102
RTVSPropertyOp54
 70
     1
102
RTVSPropertyOp55
 70
     1
102
RTVSPropertyOp56
 70
     1
102
RTVSPropertyOp57
 70
     1
102
RTVSPropertyOp58
 70
     1
102
RTVSPropertyOp59
 70
     1
102
RTVSPropertyOp60
 70
     1
102
RTVSPropertyOp61
 70
     1
102
RTVSPropertyOp62
 70
     1
  0
XRECORD
  5
602
102
{ACAD_REACTORS
330
601
102
}
330
601
100
AcDbXrecord
280
     1
102
RTVSPost2010Prop28
280
     0
102
RTVSPost2010PropOp28
 70
     1
102
RTVSPost2010Prop29
280
     1
102
RTVSPost2010PropOp29
 70
     1
102
RTVSPost2010Prop30
280
     1
102
RTVSPost2010PropOp30
 70
     1
102
RTVSPost2010Prop31
280
     0
102
RTVSPost2010PropOp31
 70
     1
102
RTVSPost2010Prop32
280
     0
102
RTVSPost2010PropOp32
 70
     1
102
RTVSPost2010Prop33
280
     0
102
RTVSPost2010PropOp33
 70
     1
102
RTVSPost2010Prop34
280
     0
102
RTVSPost2010PropOp34
 70
     1
102
RTVSPost2010Prop35
280
     0
102
RTVSPost2010PropOp35
 70
     1
102
RTVSPost2010Prop36
280
     0
102
RTVSPost2010PropOp36
 70
     1
102
RTVSPost2010Prop37
 90
       50
102
RTVSPost2010PropOp37
 70
     1
102
RTVSPost2010Prop38
140
0.0
102
RTVSPost2010PropOp38
 70
     1
102
RTVSPost2010Prop39
140
1.0
102
RTVSPost2010PropOp39
 70
     1
102
RTVSPost2010Prop40
 90
        0
102
RTVSPost2010PropOp40
 70
     1
102
RTVSPost2010Prop41ColorIndex
 90
       18
102
RTVSPost2010Prop41ColorRGB
 90
        0
102
RTVSPost2010PropOp41
 70
     1
102
RTVSPost2010Prop42
 90
       50
102
RTVSPost2010PropOp42
 70
     1
102
RTVSPost2010Prop43
 90
        3
102
RTVSPost2010PropOp43
 70
     1
102
RTVSPost2010Prop44ColorIndex
 90
        5
102
RTVSPost2010Prop44ColorRGB
 90
      255
102
RTVSPost2010PropOp44
 70
     1
102
RTVSPost2010Prop45
280
     0
102
RTVSPost2010PropOp45
 70
     1
102
RTVSPost2010Prop46
 90
       50
102
RTVSPost2010PropOp46
 70
     1
102
RTVSPost2010Prop47
 90
       50
102
RTVSPost2010PropOp47
 70
     1
102
RTVSPost2010Prop48
 90
       50
102
RTVSPost2010PropOp48
 70
     1
102
RTVSPost2010Prop49
280
     0
102
RTVSPost2010PropOp49
 70
     1
102
RTVSPost2010Prop50
 90
       50
102
RTVSPost2010PropOp50
 70
     1
102
RTVSPost2010Prop51ColorIndex
 90
      256
102
RTVSPost2010Prop51ColorRGB
 90
-16777216
102
RTVSPost2010PropOp51
 70
     0
102
RTVSPost2010Prop52
140
1.0
102
RTVSPost2010PropOp52
 70
     0
102
RTVSPost2010Prop53
 90
        2
102
RTVSPost2010PropOp53
 70
     1
102
RTVSPost2010Prop54
  1
strokes_ogs.tif
102
RTVSPost2010PropOp54
 70
     1
102
RTVSPost2010Prop55
280
     0
102
RTVSPost2010PropOp55
 70
     1
102
RTVSPost2010Prop56
140
1.0
102
RTVSPost2010PropOp56
 70
     1
102
RTVSPost2010Prop57
140
1.0
102
RTVSPost2010PropOp57
 70
     1
102
RTVSPropertyOp0
 70
     1
102
RTVSPropertyOp1
 70
     1
102
RTVSPropertyOp2
 70
     1
102
RTVSPropertyOp3
 70
     1
102
RTVSPropertyOp4
 70
     1
102
RTVSPropertyOp5
 70
     1
102
RTVSPropertyOp6
 70
     1
102
RTVSPropertyOp7
 70
     1
102
RTVSPropertyOp8
 70
     1
102
RTVSPropertyOp9
 70
     1
102
RTVSPropertyOp10
 70
     1
102
RTVSPropertyOp11
 70
     1
102
RTVSPropertyOp12
 70
     1
102
RTVSPropertyOp13
 70
     1
102
RTVSPropertyOp14
 70
     1
102
RTVSPropertyOp15
 70
     1
102
RTVSPropertyOp16
 70
     1
102
RTVSPropertyOp17
 70
     1
102
RTVSPropertyOp18
 70
     1
102
RTVSPropertyOp19
 70
     1
102
RTVSPropertyOp20
 70
     1
102
RTVSPropertyOp21
 70
     1
102
RTVSPropertyOp22
 70
     1
102
RTVSPropertyOp23
 70
     1
102
RTVSPropertyOp24
 70
     1
102
RTVSPropertyOp25
 70
     1
102
RTVSPropertyOp26
 70
     1
102
RTVSPropertyOp27
 70
     1
102
RTVSPropertyOp28
 70
     1
102
RTVSPropertyOp29
 70
     1
102
RTVSPropertyOp30
 70
     1
102
RTVSPropertyOp31
 70
     1
102
RTVSPropertyOp32
 70
     1
102
RTVSPropertyOp33
 70
     1
102
RTVSPropertyOp34
 70
     1
102
RTVSPropertyOp35
 70
     1
102
RTVSPropertyOp36
 70
     1
102
RTVSPropertyOp37
 70
     1
102
RTVSPropertyOp38
 70
     1
102
RTVSPropertyOp39
 70
     1
102
RTVSPropertyOp40
 70
     1
102
RTVSPropertyOp41
 70
     1
102
RTVSPropertyOp42
 70
     1
102
RTVSPropertyOp43
 70
     1
102
RTVSPropertyOp44
 70
     1
102
RTVSPropertyOp45
 70
     1
102
RTVSPropertyOp46
 70
     1
102
RTVSPropertyOp47
 70
     1
102
RTVSPropertyOp48
 70
     1
102
RTVSPropertyOp49
 70
     1
102
RTVSPropertyOp50
 70
     1
102
RTVSPropertyOp51
 70
     0
102
RTVSPropertyOp52
 70
     0
102
RTVSPropertyOp53
 70
     1
102
RTVSPropertyOp54
 70
     1
102
RTVSPropertyOp55
 70
     1
102
RTVSPropertyOp56
 70
     1
102
RTVSPropertyOp57
 70
     1
102
RTVSPropertyOp58
 70
     1
102
RTVSPropertyOp59
 70
     1
102
RTVSPropertyOp60
 70
     1
102
RTVSPropertyOp61
 70
     1
102
RTVSPropertyOp62
 70
     1
  0
XRECORD
  5
61E
102
{ACAD_REACTORS
330
61D
102
}
330
61D
100
AcDbXrecord
280
     1
102
RTVSPost2010Prop28
280
     0
102
RTVSPost2010PropOp28
 70
     1
102
RTVSPost2010Prop29
280
     1
102
RTVSPost2010PropOp29
 70
     1
102
RTVSPost2010Prop30
280
     1
102
RTVSPost2010PropOp30
 70
     1
102
RTVSPost2010Prop31
280
     0
102
RTVSPost2010PropOp31
 70
     1
102
RTVSPost2010Prop32
280
     0
102
RTVSPost2010PropOp32
 70
     1
102
RTVSPost2010Prop33
280
     0
102
RTVSPost2010PropOp33
 70
     1
102
RTVSPost2010Prop34
280
     0
102
RTVSPost2010PropOp34
 70
     1
102
RTVSPost2010Prop35
280
     0
102
RTVSPost2010PropOp35
 70
     1
102
RTVSPost2010Prop36
280
     0
102
RTVSPost2010PropOp36
 70
     1
102
RTVSPost2010Prop37
 90
       50
102
RTVSPost2010PropOp37
 70
     1
102
RTVSPost2010Prop38
140
0.0
102
RTVSPost2010PropOp38
 70
     1
102
RTVSPost2010Prop39
140
1.0
102
RTVSPost2010PropOp39
 70
     1
102
RTVSPost2010Prop40
 90
        0
102
RTVSPost2010PropOp40
 70
     1
102
RTVSPost2010Prop41ColorIndex
 90
       18
102
RTVSPost2010Prop41ColorRGB
 90
        0
102
RTVSPost2010PropOp41
 70
     1
102
RTVSPost2010Prop42
 90
       50
102
RTVSPost2010PropOp42
 70
     1
102
RTVSPost2010Prop43
 90
        3
102
RTVSPost2010PropOp43
 70
     1
102
RTVSPost2010Prop44ColorIndex
 90
        5
102
RTVSPost2010Prop44ColorRGB
 90
      255
102
RTVSPost2010PropOp44
 70
     1
102
RTVSPost2010Prop45
280
     0
102
RTVSPost2010PropOp45
 70
     1
102
RTVSPost2010Prop46
 90
       50
102
RTVSPost2010PropOp46
 70
     1
102
RTVSPost2010Prop47
 90
       50
102
RTVSPost2010PropOp47
 70
     1
102
RTVSPost2010Prop48
 90
       50
102
RTVSPost2010PropOp48
 70
     1
102
RTVSPost2010Prop49
280
     0
102
RTVSPost2010PropOp49
 70
     1
102
RTVSPost2010Prop50
 90
       50
102
RTVSPost2010PropOp50
 70
     1
102
RTVSPost2010Prop51ColorIndex
 90
      256
102
RTVSPost2010Prop51ColorRGB
 90
-16777216
102
RTVSPost2010PropOp51
 70
     0
102
RTVSPost2010Prop52
140
1.0
102
RTVSPost2010PropOp52
 70
     0
102
RTVSPost2010Prop53
 90
        2
102
RTVSPost2010PropOp53
 70
     1
102
RTVSPost2010Prop54
  1
strokes_ogs.tif
102
RTVSPost2010PropOp54
 70
     1
102
RTVSPost2010Prop55
280
     0
102
RTVSPost2010PropOp55
 70
     1
102
RTVSPost2010Prop56
140
1.0
102
RTVSPost2010PropOp56
 70
     1
102
RTVSPost2010Prop57
140
1.0
102
RTVSPost2010PropOp57
 70
     1
102
RTVSPropertyOp0
 70
     1
102
RTVSPropertyOp1
 70
     1
102
RTVSPropertyOp2
 70
     1
102
RTVSPropertyOp3
 70
     1
102
RTVSPropertyOp4
 70
     1
102
RTVSPropertyOp5
 70
     1
102
RTVSPropertyOp6
 70
     1
102
RTVSPropertyOp7
 70
     1
102
RTVSPropertyOp8
 70
     1
102
RTVSPropertyOp9
 70
     1
102
RTVSPropertyOp10
 70
     1
102
RTVSPropertyOp11
 70
     1
102
RTVSPropertyOp12
 70
     1
102
RTVSPropertyOp13
 70
     1
102
RTVSPropertyOp14
 70
     1
102
RTVSPropertyOp15
 70
     1
102
RTVSPropertyOp16
 70
     1
102
RTVSPropertyOp17
 70
     1
102
RTVSPropertyOp18
 70
     1
102
RTVSPropertyOp19
 70
     1
102
RTVSPropertyOp20
 70
     1
102
RTVSPropertyOp21
 70
     1
102
RTVSPropertyOp22
 70
     1
102
RTVSPropertyOp23
 70
     1
102
RTVSPropertyOp24
 70
     1
102
RTVSPropertyOp25
 70
     1
102
RTVSPropertyOp26
 70
     1
102
RTVSPropertyOp27
 70
     1
102
RTVSPropertyOp28
 70
     1
102
RTVSPropertyOp29
 70
     1
102
RTVSPropertyOp30
 70
     1
102
RTVSPropertyOp31
 70
     1
102
RTVSPropertyOp32
 70
     1
102
RTVSPropertyOp33
 70
     1
102
RTVSPropertyOp34
 70
     1
102
RTVSPropertyOp35
 70
     1
102
RTVSPropertyOp36
 70
     1
102
RTVSPropertyOp37
 70
     1
102
RTVSPropertyOp38
 70
     1
102
RTVSPropertyOp39
 70
     1
102
RTVSPropertyOp40
 70
     1
102
RTVSPropertyOp41
 70
     1
102
RTVSPropertyOp42
 70
     1
102
RTVSPropertyOp43
 70
     1
102
RTVSPropertyOp44
 70
     1
102
RTVSPropertyOp45
 70
     1
102
RTVSPropertyOp46
 70
     1
102
RTVSPropertyOp47
 70
     1
102
RTVSPropertyOp48
 70
     1
102
RTVSPropertyOp49
 70
     1
102
RTVSPropertyOp50
 70
     1
102
RTVSPropertyOp51
 70
     0
102
RTVSPropertyOp52
 70
     0
102
RTVSPropertyOp53
 70
     1
102
RTVSPropertyOp54
 70
     1
102
RTVSPropertyOp55
 70
     1
102
RTVSPropertyOp56
 70
     1
102
RTVSPropertyOp57
 70
     1
102
RTVSPropertyOp58
 70
     1
102
RTVSPropertyOp59
 70
     1
102
RTVSPropertyOp60
 70
     1
102
RTVSPropertyOp61
 70
     1
102
RTVSPropertyOp62
 70
     1
  0
XRECORD
  5
61C
102
{ACAD_REACTORS
330
61B
102
}
330
61B
100
AcDbXrecord
280
     1
102
RTVSPost2010Prop28
280
     0
102
RTVSPost2010PropOp28
 70
     1
102
RTVSPost2010Prop29
280
     1
102
RTVSPost2010PropOp29
 70
     1
102
RTVSPost2010Prop30
280
     1
102
RTVSPost2010PropOp30
 70
     1
102
RTVSPost2010Prop31
280
     0
102
RTVSPost2010PropOp31
 70
     1
102
RTVSPost2010Prop32
280
     0
102
RTVSPost2010PropOp32
 70
     1
102
RTVSPost2010Prop33
280
     0
102
RTVSPost2010PropOp33
 70
     1
102
RTVSPost2010Prop34
280
     0
102
RTVSPost2010PropOp34
 70
     1
102
RTVSPost2010Prop35
280
     0
102
RTVSPost2010PropOp35
 70
     1
102
RTVSPost2010Prop36
280
     0
102
RTVSPost2010PropOp36
 70
     1
102
RTVSPost2010Prop37
 90
       50
102
RTVSPost2010PropOp37
 70
     1
102
RTVSPost2010Prop38
140
0.0
102
RTVSPost2010PropOp38
 70
     1
102
RTVSPost2010Prop39
140
1.0
102
RTVSPost2010PropOp39
 70
     1
102
RTVSPost2010Prop40
 90
        0
102
RTVSPost2010PropOp40
 70
     1
102
RTVSPost2010Prop41ColorIndex
 90
       18
102
RTVSPost2010Prop41ColorRGB
 90
        0
102
RTVSPost2010PropOp41
 70
     1
102
RTVSPost2010Prop42
 90
       50
102
RTVSPost2010PropOp42
 70
     1
102
RTVSPost2010Prop43
 90
        3
102
RTVSPost2010PropOp43
 70
     1
102
RTVSPost2010Prop44ColorIndex
 90
        5
102
RTVSPost2010Prop44ColorRGB
 90
      255
102
RTVSPost2010PropOp44
 70
     1
102
RTVSPost2010Prop45
280
     0
102
RTVSPost2010PropOp45
 70
     1
102
RTVSPost2010Prop46
 90
       50
102
RTVSPost2010PropOp46
 70
     1
102
RTVSPost2010Prop47
 90
       50
102
RTVSPost2010PropOp47
 70
     1
102
RTVSPost2010Prop48
 90
       50
102
RTVSPost2010PropOp48
 70
     1
102
RTVSPost2010Prop49
280
     0
102
RTVSPost2010PropOp49
 70
     1
102
RTVSPost2010Prop50
 90
       50
102
RTVSPost2010PropOp50
 70
     1
102
RTVSPost2010Prop51ColorIndex
 90
      256
102
RTVSPost2010Prop51ColorRGB
 90
-16777216
102
RTVSPost2010PropOp51
 70
     0
102
RTVSPost2010Prop52
140
1.0
102
RTVSPost2010PropOp52
 70
     0
102
RTVSPost2010Prop53
 90
        2
102
RTVSPost2010PropOp53
 70
     1
102
RTVSPost2010Prop54
  1
strokes_ogs.tif
102
RTVSPost2010PropOp54
 70
     1
102
RTVSPost2010Prop55
280
     0
102
RTVSPost2010PropOp55
 70
     1
102
RTVSPost2010Prop56
140
1.0
102
RTVSPost2010PropOp56
 70
     1
102
RTVSPost2010Prop57
140
1.0
102
RTVSPost2010PropOp57
 70
     1
102
RTVSPropertyOp0
 70
     1
102
RTVSPropertyOp1
 70
     1
102
RTVSPropertyOp2
 70
     1
102
RTVSPropertyOp3
 70
     1
102
RTVSPropertyOp4
 70
     1
102
RTVSPropertyOp5
 70
     1
102
RTVSPropertyOp6
 70
     1
102
RTVSPropertyOp7
 70
     1
102
RTVSPropertyOp8
 70
     1
102
RTVSPropertyOp9
 70
     1
102
RTVSPropertyOp10
 70
     1
102
RTVSPropertyOp11
 70
     1
102
RTVSPropertyOp12
 70
     1
102
RTVSPropertyOp13
 70
     1
102
RTVSPropertyOp14
 70
     1
102
RTVSPropertyOp15
 70
     1
102
RTVSPropertyOp16
 70
     1
102
RTVSPropertyOp17
 70
     1
102
RTVSPropertyOp18
 70
     1
102
RTVSPropertyOp19
 70
     1
102
RTVSPropertyOp20
 70
     1
102
RTVSPropertyOp21
 70
     1
102
RTVSPropertyOp22
 70
     1
102
RTVSPropertyOp23
 70
     1
102
RTVSPropertyOp24
 70
     1
102
RTVSPropertyOp25
 70
     1
102
RTVSPropertyOp26
 70
     1
102
RTVSPropertyOp27
 70
     1
102
RTVSPropertyOp28
 70
     1
102
RTVSPropertyOp29
 70
     1
102
RTVSPropertyOp30
 70
     1
102
RTVSPropertyOp31
 70
     1
102
RTVSPropertyOp32
 70
     1
102
RTVSPropertyOp33
 70
     1
102
RTVSPropertyOp34
 70
     1
102
RTVSPropertyOp35
 70
     1
102
RTVSPropertyOp36
 70
     1
102
RTVSPropertyOp37
 70
     1
102
RTVSPropertyOp38
 70
     1
102
RTVSPropertyOp39
 70
     1
102
RTVSPropertyOp40
 70
     1
102
RTVSPropertyOp41
 70
     1
102
RTVSPropertyOp42
 70
     1
102
RTVSPropertyOp43
 70
     1
102
RTVSPropertyOp44
 70
     1
102
RTVSPropertyOp45
 70
     1
102
RTVSPropertyOp46
 70
     1
102
RTVSPropertyOp47
 70
     1
102
RTVSPropertyOp48
 70
     1
102
RTVSPropertyOp49
 70
     1
102
RTVSPropertyOp50
 70
     1
102
RTVSPropertyOp51
 70
     0
102
RTVSPropertyOp52
 70
     0
102
RTVSPropertyOp53
 70
     1
102
RTVSPropertyOp54
 70
     1
102
RTVSPropertyOp55
 70
     1
102
RTVSPropertyOp56
 70
     1
102
RTVSPropertyOp57
 70
     1
102
RTVSPropertyOp58
 70
     1
102
RTVSPropertyOp59
 70
     1
102
RTVSPropertyOp60
 70
     1
102
RTVSPropertyOp61
 70
     1
102
RTVSPropertyOp62
 70
     1
  0
XRECORD
  5
616
102
{ACAD_REACTORS
330
615
102
}
330
615
100
AcDbXrecord
280
     1
102
RTVSPost2010Prop28
280
     0
102
RTVSPost2010PropOp28
 70
     1
102
RTVSPost2010Prop29
280
     1
102
RTVSPost2010PropOp29
 70
     1
102
RTVSPost2010Prop30
280
     1
102
RTVSPost2010PropOp30
 70
     1
102
RTVSPost2010Prop31
280
     0
102
RTVSPost2010PropOp31
 70
     1
102
RTVSPost2010Prop32
280
     0
102
RTVSPost2010PropOp32
 70
     1
102
RTVSPost2010Prop33
280
     0
102
RTVSPost2010PropOp33
 70
     1
102
RTVSPost2010Prop34
280
     0
102
RTVSPost2010PropOp34
 70
     1
102
RTVSPost2010Prop35
280
     0
102
RTVSPost2010PropOp35
 70
     1
102
RTVSPost2010Prop36
280
     0
102
RTVSPost2010PropOp36
 70
     1
102
RTVSPost2010Prop37
 90
       50
102
RTVSPost2010PropOp37
 70
     1
102
RTVSPost2010Prop38
140
0.0
102
RTVSPost2010PropOp38
 70
     1
102
RTVSPost2010Prop39
140
1.0
102
RTVSPost2010PropOp39
 70
     1
102
RTVSPost2010Prop40
 90
        0
102
RTVSPost2010PropOp40
 70
     1
102
RTVSPost2010Prop41ColorIndex
 90
       18
102
RTVSPost2010Prop41ColorRGB
 90
        0
102
RTVSPost2010PropOp41
 70
     1
102
RTVSPost2010Prop42
 90
       50
102
RTVSPost2010PropOp42
 70
     1
102
RTVSPost2010Prop43
 90
        3
102
RTVSPost2010PropOp43
 70
     1
102
RTVSPost2010Prop44ColorIndex
 90
        5
102
RTVSPost2010Prop44ColorRGB
 90
      255
102
RTVSPost2010PropOp44
 70
     1
102
RTVSPost2010Prop45
280
     0
102
RTVSPost2010PropOp45
 70
     1
102
RTVSPost2010Prop46
 90
       50
102
RTVSPost2010PropOp46
 70
     1
102
RTVSPost2010Prop47
 90
       50
102
RTVSPost2010PropOp47
 70
     1
102
RTVSPost2010Prop48
 90
       50
102
RTVSPost2010PropOp48
 70
     1
102
RTVSPost2010Prop49
280
     0
102
RTVSPost2010PropOp49
 70
     1
102
RTVSPost2010Prop50
 90
       50
102
RTVSPost2010PropOp50
 70
     1
102
RTVSPost2010Prop51ColorIndex
 90
      256
102
RTVSPost2010Prop51ColorRGB
 90
-16777216
102
RTVSPost2010PropOp51
 70
     0
102
RTVSPost2010Prop52
140
1.0
102
RTVSPost2010PropOp52
 70
     0
102
RTVSPost2010Prop53
 90
        2
102
RTVSPost2010PropOp53
 70
     1
102
RTVSPost2010Prop54
  1
strokes_ogs.tif
102
RTVSPost2010PropOp54
 70
     1
102
RTVSPost2010Prop55
280
     0
102
RTVSPost2010PropOp55
 70
     1
102
RTVSPost2010Prop56
140
1.0
102
RTVSPost2010PropOp56
 70
     1
102
RTVSPost2010Prop57
140
1.0
102
RTVSPost2010PropOp57
 70
     1
102
RTVSPropertyOp0
 70
     1
102
RTVSPropertyOp1
 70
     1
102
RTVSPropertyOp2
 70
     1
102
RTVSPropertyOp3
 70
     1
102
RTVSPropertyOp4
 70
     1
102
RTVSPropertyOp5
 70
     1
102
RTVSPropertyOp6
 70
     1
102
RTVSPropertyOp7
 70
     1
102
RTVSPropertyOp8
 70
     1
102
RTVSPropertyOp9
 70
     1
102
RTVSPropertyOp10
 70
     1
102
RTVSPropertyOp11
 70
     1
102
RTVSPropertyOp12
 70
     1
102
RTVSPropertyOp13
 70
     1
102
RTVSPropertyOp14
 70
     1
102
RTVSPropertyOp15
 70
     1
102
RTVSPropertyOp16
 70
     1
102
RTVSPropertyOp17
 70
     1
102
RTVSPropertyOp18
 70
     1
102
RTVSPropertyOp19
 70
     1
102
RTVSPropertyOp20
 70
     1
102
RTVSPropertyOp21
 70
     1
102
RTVSPropertyOp22
 70
     1
102
RTVSPropertyOp23
 70
     1
102
RTVSPropertyOp24
 70
     1
102
RTVSPropertyOp25
 70
     1
102
RTVSPropertyOp26
 70
     1
102
RTVSPropertyOp27
 70
     1
102
RTVSPropertyOp28
 70
     1
102
RTVSPropertyOp29
 70
     1
102
RTVSPropertyOp30
 70
     1
102
RTVSPropertyOp31
 70
     1
102
RTVSPropertyOp32
 70
     1
102
RTVSPropertyOp33
 70
     1
102
RTVSPropertyOp34
 70
     1
102
RTVSPropertyOp35
 70
     1
102
RTVSPropertyOp36
 70
     1
102
RTVSPropertyOp37
 70
     1
102
RTVSPropertyOp38
 70
     1
102
RTVSPropertyOp39
 70
     1
102
RTVSPropertyOp40
 70
     1
102
RTVSPropertyOp41
 70
     1
102
RTVSPropertyOp42
 70
     1
102
RTVSPropertyOp43
 70
     1
102
RTVSPropertyOp44
 70
     1
102
RTVSPropertyOp45
 70
     1
102
RTVSPropertyOp46
 70
     1
102
RTVSPropertyOp47
 70
     1
102
RTVSPropertyOp48
 70
     1
102
RTVSPropertyOp49
 70
     1
102
RTVSPropertyOp50
 70
     1
102
RTVSPropertyOp51
 70
     0
102
RTVSPropertyOp52
 70
     0
102
RTVSPropertyOp53
 70
     1
102
RTVSPropertyOp54
 70
     1
102
RTVSPropertyOp55
 70
     1
102
RTVSPropertyOp56
 70
     1
102
RTVSPropertyOp57
 70
     1
102
RTVSPropertyOp58
 70
     1
102
RTVSPropertyOp59
 70
     1
102
RTVSPropertyOp60
 70
     1
102
RTVSPropertyOp61
 70
     1
102
RTVSPropertyOp62
 70
     1
  0
XRECORD
  5
618
102
{ACAD_REACTORS
330
617
102
}
330
617
100
AcDbXrecord
280
     1
102
RTVSPost2010Prop28
280
     0
102
RTVSPost2010PropOp28
 70
     1
102
RTVSPost2010Prop29
280
     1
102
RTVSPost2010PropOp29
 70
     1
102
RTVSPost2010Prop30
280
     1
102
RTVSPost2010PropOp30
 70
     1
102
RTVSPost2010Prop31
280
     0
102
RTVSPost2010PropOp31
 70
     1
102
RTVSPost2010Prop32
280
     0
102
RTVSPost2010PropOp32
 70
     1
102
RTVSPost2010Prop33
280
     0
102
RTVSPost2010PropOp33
 70
     1
102
RTVSPost2010Prop34
280
     0
102
RTVSPost2010PropOp34
 70
     1
102
RTVSPost2010Prop35
280
     0
102
RTVSPost2010PropOp35
 70
     1
102
RTVSPost2010Prop36
280
     0
102
RTVSPost2010PropOp36
 70
     1
102
RTVSPost2010Prop37
 90
       50
102
RTVSPost2010PropOp37
 70
     1
102
RTVSPost2010Prop38
140
0.0
102
RTVSPost2010PropOp38
 70
     1
102
RTVSPost2010Prop39
140
1.0
102
RTVSPost2010PropOp39
 70
     1
102
RTVSPost2010Prop40
 90
        0
102
RTVSPost2010PropOp40
 70
     1
102
RTVSPost2010Prop41ColorIndex
 90
       18
102
RTVSPost2010Prop41ColorRGB
 90
        0
102
RTVSPost2010PropOp41
 70
     1
102
RTVSPost2010Prop42
 90
       50
102
RTVSPost2010PropOp42
 70
     1
102
RTVSPost2010Prop43
 90
        3
102
RTVSPost2010PropOp43
 70
     1
102
RTVSPost2010Prop44ColorIndex
 90
        5
102
RTVSPost2010Prop44ColorRGB
 90
      255
102
RTVSPost2010PropOp44
 70
     1
102
RTVSPost2010Prop45
280
     0
102
RTVSPost2010PropOp45
 70
     1
102
RTVSPost2010Prop46
 90
       50
102
RTVSPost2010PropOp46
 70
     1
102
RTVSPost2010Prop47
 90
       50
102
RTVSPost2010PropOp47
 70
     1
102
RTVSPost2010Prop48
 90
       50
102
RTVSPost2010PropOp48
 70
     1
102
RTVSPost2010Prop49
280
     0
102
RTVSPost2010PropOp49
 70
     1
102
RTVSPost2010Prop50
 90
       50
102
RTVSPost2010PropOp50
 70
     1
102
RTVSPost2010Prop51ColorIndex
 90
      256
102
RTVSPost2010Prop51ColorRGB
 90
-16777216
102
RTVSPost2010PropOp51
 70
     0
102
RTVSPost2010Prop52
140
1.0
102
RTVSPost2010PropOp52
 70
     0
102
RTVSPost2010Prop53
 90
        2
102
RTVSPost2010PropOp53
 70
     1
102
RTVSPost2010Prop54
  1
strokes_ogs.tif
102
RTVSPost2010PropOp54
 70
     1
102
RTVSPost2010Prop55
280
     0
102
RTVSPost2010PropOp55
 70
     1
102
RTVSPost2010Prop56
140
1.0
102
RTVSPost2010PropOp56
 70
     1
102
RTVSPost2010Prop57
140
1.0
102
RTVSPost2010PropOp57
 70
     1
102
RTVSPropertyOp0
 70
     1
102
RTVSPropertyOp1
 70
     1
102
RTVSPropertyOp2
 70
     1
102
RTVSPropertyOp3
 70
     1
102
RTVSPropertyOp4
 70
     1
102
RTVSPropertyOp5
 70
     1
102
RTVSPropertyOp6
 70
     1
102
RTVSPropertyOp7
 70
     1
102
RTVSPropertyOp8
 70
     1
102
RTVSPropertyOp9
 70
     1
102
RTVSPropertyOp10
 70
     1
102
RTVSPropertyOp11
 70
     1
102
RTVSPropertyOp12
 70
     1
102
RTVSPropertyOp13
 70
     1
102
RTVSPropertyOp14
 70
     1
102
RTVSPropertyOp15
 70
     1
102
RTVSPropertyOp16
 70
     1
102
RTVSPropertyOp17
 70
     1
102
RTVSPropertyOp18
 70
     1
102
RTVSPropertyOp19
 70
     1
102
RTVSPropertyOp20
 70
     1
102
RTVSPropertyOp21
 70
     1
102
RTVSPropertyOp22
 70
     1
102
RTVSPropertyOp23
 70
     1
102
RTVSPropertyOp24
 70
     1
102
RTVSPropertyOp25
 70
     1
102
RTVSPropertyOp26
 70
     1
102
RTVSPropertyOp27
 70
     1
102
RTVSPropertyOp28
 70
     1
102
RTVSPropertyOp29
 70
     1
102
RTVSPropertyOp30
 70
     1
102
RTVSPropertyOp31
 70
     1
102
RTVSPropertyOp32
 70
     1
102
RTVSPropertyOp33
 70
     1
102
RTVSPropertyOp34
 70
     1
102
RTVSPropertyOp35
 70
     1
102
RTVSPropertyOp36
 70
     1
102
RTVSPropertyOp37
 70
     1
102
RTVSPropertyOp38
 70
     1
102
RTVSPropertyOp39
 70
     1
102
RTVSPropertyOp40
 70
     1
102
RTVSPropertyOp41
 70
     1
102
RTVSPropertyOp42
 70
     1
102
RTVSPropertyOp43
 70
     1
102
RTVSPropertyOp44
 70
     1
102
RTVSPropertyOp45
 70
     1
102
RTVSPropertyOp46
 70
     1
102
RTVSPropertyOp47
 70
     1
102
RTVSPropertyOp48
 70
     1
102
RTVSPropertyOp49
 70
     1
102
RTVSPropertyOp50
 70
     1
102
RTVSPropertyOp51
 70
     0
102
RTVSPropertyOp52
 70
     0
102
RTVSPropertyOp53
 70
     1
102
RTVSPropertyOp54
 70
     1
102
RTVSPropertyOp55
 70
     1
102
RTVSPropertyOp56
 70
     1
102
RTVSPropertyOp57
 70
     1
102
RTVSPropertyOp58
 70
     1
102
RTVSPropertyOp59
 70
     1
102
RTVSPropertyOp60
 70
     1
102
RTVSPropertyOp61
 70
     1
102
RTVSPropertyOp62
 70
     1
  0
XRECORD
  5
608
102
{ACAD_REACTORS
330
607
102
}
330
607
100
AcDbXrecord
280
     1
102
RTVSPost2010Prop28
280
     0
102
RTVSPost2010PropOp28
 70
     1
102
RTVSPost2010Prop29
280
     1
102
RTVSPost2010PropOp29
 70
     1
102
RTVSPost2010Prop30
280
     1
102
RTVSPost2010PropOp30
 70
     1
102
RTVSPost2010Prop31
280
     0
102
RTVSPost2010PropOp31
 70
     1
102
RTVSPost2010Prop32
280
     0
102
RTVSPost2010PropOp32
 70
     1
102
RTVSPost2010Prop33
280
     0
102
RTVSPost2010PropOp33
 70
     1
102
RTVSPost2010Prop34
280
     0
102
RTVSPost2010PropOp34
 70
     1
102
RTVSPost2010Prop35
280
     0
102
RTVSPost2010PropOp35
 70
     1
102
RTVSPost2010Prop36
280
     0
102
RTVSPost2010PropOp36
 70
     1
102
RTVSPost2010Prop37
 90
       50
102
RTVSPost2010PropOp37
 70
     1
102
RTVSPost2010Prop38
140
0.0
102
RTVSPost2010PropOp38
 70
     1
102
RTVSPost2010Prop39
140
1.0
102
RTVSPost2010PropOp39
 70
     1
102
RTVSPost2010Prop40
 90
        0
102
RTVSPost2010PropOp40
 70
     1
102
RTVSPost2010Prop41ColorIndex
 90
       18
102
RTVSPost2010Prop41ColorRGB
 90
        0
102
RTVSPost2010PropOp41
 70
     1
102
RTVSPost2010Prop42
 90
       50
102
RTVSPost2010PropOp42
 70
     1
102
RTVSPost2010Prop43
 90
        3
102
RTVSPost2010PropOp43
 70
     1
102
RTVSPost2010Prop44ColorIndex
 90
        5
102
RTVSPost2010Prop44ColorRGB
 90
      255
102
RTVSPost2010PropOp44
 70
     1
102
RTVSPost2010Prop45
280
     0
102
RTVSPost2010PropOp45
 70
     1
102
RTVSPost2010Prop46
 90
       50
102
RTVSPost2010PropOp46
 70
     1
102
RTVSPost2010Prop47
 90
       50
102
RTVSPost2010PropOp47
 70
     1
102
RTVSPost2010Prop48
 90
       50
102
RTVSPost2010PropOp48
 70
     1
102
RTVSPost2010Prop49
280
     0
102
RTVSPost2010PropOp49
 70
     1
102
RTVSPost2010Prop50
 90
       50
102
RTVSPost2010PropOp50
 70
     1
102
RTVSPost2010Prop51ColorIndex
 90
      256
102
RTVSPost2010Prop51ColorRGB
 90
-16777216
102
RTVSPost2010PropOp51
 70
     0
102
RTVSPost2010Prop52
140
1.0
102
RTVSPost2010PropOp52
 70
     0
102
RTVSPost2010Prop53
 90
        2
102
RTVSPost2010PropOp53
 70
     1
102
RTVSPost2010Prop54
  1
strokes_ogs.tif
102
RTVSPost2010PropOp54
 70
     1
102
RTVSPost2010Prop55
280
     0
102
RTVSPost2010PropOp55
 70
     1
102
RTVSPost2010Prop56
140
1.0
102
RTVSPost2010PropOp56
 70
     1
102
RTVSPost2010Prop57
140
1.0
102
RTVSPost2010PropOp57
 70
     1
102
RTVSPropertyOp0
 70
     1
102
RTVSPropertyOp1
 70
     1
102
RTVSPropertyOp2
 70
     1
102
RTVSPropertyOp3
 70
     1
102
RTVSPropertyOp4
 70
     1
102
RTVSPropertyOp5
 70
     1
102
RTVSPropertyOp6
 70
     1
102
RTVSPropertyOp7
 70
     1
102
RTVSPropertyOp8
 70
     1
102
RTVSPropertyOp9
 70
     1
102
RTVSPropertyOp10
 70
     1
102
RTVSPropertyOp11
 70
     1
102
RTVSPropertyOp12
 70
     1
102
RTVSPropertyOp13
 70
     1
102
RTVSPropertyOp14
 70
     1
102
RTVSPropertyOp15
 70
     1
102
RTVSPropertyOp16
 70
     1
102
RTVSPropertyOp17
 70
     1
102
RTVSPropertyOp18
 70
     1
102
RTVSPropertyOp19
 70
     1
102
RTVSPropertyOp20
 70
     1
102
RTVSPropertyOp21
 70
     1
102
RTVSPropertyOp22
 70
     1
102
RTVSPropertyOp23
 70
     1
102
RTVSPropertyOp24
 70
     1
102
RTVSPropertyOp25
 70
     1
102
RTVSPropertyOp26
 70
     1
102
RTVSPropertyOp27
 70
     1
102
RTVSPropertyOp28
 70
     1
102
RTVSPropertyOp29
 70
     1
102
RTVSPropertyOp30
 70
     1
102
RTVSPropertyOp31
 70
     1
102
RTVSPropertyOp32
 70
     1
102
RTVSPropertyOp33
 70
     1
102
RTVSPropertyOp34
 70
     1
102
RTVSPropertyOp35
 70
     1
102
RTVSPropertyOp36
 70
     1
102
RTVSPropertyOp37
 70
     1
102
RTVSPropertyOp38
 70
     1
102
RTVSPropertyOp39
 70
     1
102
RTVSPropertyOp40
 70
     1
102
RTVSPropertyOp41
 70
     1
102
RTVSPropertyOp42
 70
     1
102
RTVSPropertyOp43
 70
     1
102
RTVSPropertyOp44
 70
     1
102
RTVSPropertyOp45
 70
     1
102
RTVSPropertyOp46
 70
     1
102
RTVSPropertyOp47
 70
     1
102
RTVSPropertyOp48
 70
     1
102
RTVSPropertyOp49
 70
     1
102
RTVSPropertyOp50
 70
     1
102
RTVSPropertyOp51
 70
     0
102
RTVSPropertyOp52
 70
     0
102
RTVSPropertyOp53
 70
     1
102
RTVSPropertyOp54
 70
     1
102
RTVSPropertyOp55
 70
     1
102
RTVSPropertyOp56
 70
     1
102
RTVSPropertyOp57
 70
     1
102
RTVSPropertyOp58
 70
     1
102
RTVSPropertyOp59
 70
     1
102
RTVSPropertyOp60
 70
     1
102
RTVSPropertyOp61
 70
     1
102
RTVSPropertyOp62
 70
     1
  0
XRECORD
  5
5FC
102
{ACAD_REACTORS
330
5FB
102
}
330
5FB
100
AcDbXrecord
280
     1
102
RTVSPost2010Prop28
280
     0
102
RTVSPost2010PropOp28
 70
     1
102
RTVSPost2010Prop29
280
     1
102
RTVSPost2010PropOp29
 70
     1
102
RTVSPost2010Prop30
280
     1
102
RTVSPost2010PropOp30
 70
     1
102
RTVSPost2010Prop31
280
     0
102
RTVSPost2010PropOp31
 70
     1
102
RTVSPost2010Prop32
280
     0
102
RTVSPost2010PropOp32
 70
     1
102
RTVSPost2010Prop33
280
     0
102
RTVSPost2010PropOp33
 70
     1
102
RTVSPost2010Prop34
280
     0
102
RTVSPost2010PropOp34
 70
     1
102
RTVSPost2010Prop35
280
     0
102
RTVSPost2010PropOp35
 70
     1
102
RTVSPost2010Prop36
280
     0
102
RTVSPost2010PropOp36
 70
     1
102
RTVSPost2010Prop37
 90
       50
102
RTVSPost2010PropOp37
 70
     1
102
RTVSPost2010Prop38
140
0.0
102
RTVSPost2010PropOp38
 70
     1
102
RTVSPost2010Prop39
140
1.0
102
RTVSPost2010PropOp39
 70
     1
102
RTVSPost2010Prop40
 90
        0
102
RTVSPost2010PropOp40
 70
     1
102
RTVSPost2010Prop41ColorIndex
 90
       18
102
RTVSPost2010Prop41ColorRGB
 90
        0
102
RTVSPost2010PropOp41
 70
     1
102
RTVSPost2010Prop42
 90
       50
102
RTVSPost2010PropOp42
 70
     1
102
RTVSPost2010Prop43
 90
        3
102
RTVSPost2010PropOp43
 70
     1
102
RTVSPost2010Prop44ColorIndex
 90
        5
102
RTVSPost2010Prop44ColorRGB
 90
      255
102
RTVSPost2010PropOp44
 70
     1
102
RTVSPost2010Prop45
280
     0
102
RTVSPost2010PropOp45
 70
     1
102
RTVSPost2010Prop46
 90
       50
102
RTVSPost2010PropOp46
 70
     1
102
RTVSPost2010Prop47
 90
       50
102
RTVSPost2010PropOp47
 70
     1
102
RTVSPost2010Prop48
 90
       50
102
RTVSPost2010PropOp48
 70
     1
102
RTVSPost2010Prop49
280
     0
102
RTVSPost2010PropOp49
 70
     1
102
RTVSPost2010Prop50
 90
       50
102
RTVSPost2010PropOp50
 70
     1
102
RTVSPost2010Prop51ColorIndex
 90
      256
102
RTVSPost2010Prop51ColorRGB
 90
-16777216
102
RTVSPost2010PropOp51
 70
     0
102
RTVSPost2010Prop52
140
1.0
102
RTVSPost2010PropOp52
 70
     0
102
RTVSPost2010Prop53
 90
        2
102
RTVSPost2010PropOp53
 70
     1
102
RTVSPost2010Prop54
  1
strokes_ogs.tif
102
RTVSPost2010PropOp54
 70
     1
102
RTVSPost2010Prop55
280
     0
102
RTVSPost2010PropOp55
 70
     1
102
RTVSPost2010Prop56
140
1.0
102
RTVSPost2010PropOp56
 70
     1
102
RTVSPost2010Prop57
140
1.0
102
RTVSPost2010PropOp57
 70
     1
102
RTVSPropertyOp0
 70
     1
102
RTVSPropertyOp1
 70
     1
102
RTVSPropertyOp2
 70
     1
102
RTVSPropertyOp3
 70
     1
102
RTVSPropertyOp4
 70
     1
102
RTVSPropertyOp5
 70
     1
102
RTVSPropertyOp6
 70
     1
102
RTVSPropertyOp7
 70
     1
102
RTVSPropertyOp8
 70
     1
102
RTVSPropertyOp9
 70
     1
102
RTVSPropertyOp10
 70
     1
102
RTVSPropertyOp11
 70
     1
102
RTVSPropertyOp12
 70
     1
102
RTVSPropertyOp13
 70
     1
102
RTVSPropertyOp14
 70
     1
102
RTVSPropertyOp15
 70
     1
102
RTVSPropertyOp16
 70
     1
102
RTVSPropertyOp17
 70
     1
102
RTVSPropertyOp18
 70
     1
102
RTVSPropertyOp19
 70
     1
102
RTVSPropertyOp20
 70
     1
102
RTVSPropertyOp21
 70
     1
102
RTVSPropertyOp22
 70
     1
102
RTVSPropertyOp23
 70
     1
102
RTVSPropertyOp24
 70
     1
102
RTVSPropertyOp25
 70
     1
102
RTVSPropertyOp26
 70
     1
102
RTVSPropertyOp27
 70
     1
102
RTVSPropertyOp28
 70
     1
102
RTVSPropertyOp29
 70
     1
102
RTVSPropertyOp30
 70
     1
102
RTVSPropertyOp31
 70
     1
102
RTVSPropertyOp32
 70
     1
102
RTVSPropertyOp33
 70
     1
102
RTVSPropertyOp34
 70
     1
102
RTVSPropertyOp35
 70
     1
102
RTVSPropertyOp36
 70
     1
102
RTVSPropertyOp37
 70
     1
102
RTVSPropertyOp38
 70
     1
102
RTVSPropertyOp39
 70
     1
102
RTVSPropertyOp40
 70
     1
102
RTVSPropertyOp41
 70
     1
102
RTVSPropertyOp42
 70
     1
102
RTVSPropertyOp43
 70
     1
102
RTVSPropertyOp44
 70
     1
102
RTVSPropertyOp45
 70
     1
102
RTVSPropertyOp46
 70
     1
102
RTVSPropertyOp47
 70
     1
102
RTVSPropertyOp48
 70
     1
102
RTVSPropertyOp49
 70
     1
102
RTVSPropertyOp50
 70
     1
102
RTVSPropertyOp51
 70
     0
102
RTVSPropertyOp52
 70
     0
102
RTVSPropertyOp53
 70
     1
102
RTVSPropertyOp54
 70
     1
102
RTVSPropertyOp55
 70
     1
102
RTVSPropertyOp56
 70
     1
102
RTVSPropertyOp57
 70
     1
102
RTVSPropertyOp58
 70
     1
102
RTVSPropertyOp59
 70
     1
102
RTVSPropertyOp60
 70
     1
102
RTVSPropertyOp61
 70
     1
102
RTVSPropertyOp62
 70
     1
  0
XRECORD
  5
61A
102
{ACAD_REACTORS
330
619
102
}
330
619
100
AcDbXrecord
280
     1
102
RTVSPost2010Prop28
280
     0
102
RTVSPost2010PropOp28
 70
     1
102
RTVSPost2010Prop29
280
     1
102
RTVSPost2010PropOp29
 70
     1
102
RTVSPost2010Prop30
280
     1
102
RTVSPost2010PropOp30
 70
     1
102
RTVSPost2010Prop31
280
     0
102
RTVSPost2010PropOp31
 70
     1
102
RTVSPost2010Prop32
280
     0
102
RTVSPost2010PropOp32
 70
     1
102
RTVSPost2010Prop33
280
     0
102
RTVSPost2010PropOp33
 70
     1
102
RTVSPost2010Prop34
280
     0
102
RTVSPost2010PropOp34
 70
     1
102
RTVSPost2010Prop35
280
     0
102
RTVSPost2010PropOp35
 70
     1
102
RTVSPost2010Prop36
280
     0
102
RTVSPost2010PropOp36
 70
     1
102
RTVSPost2010Prop37
 90
       50
102
RTVSPost2010PropOp37
 70
     1
102
RTVSPost2010Prop38
140
0.0
102
RTVSPost2010PropOp38
 70
     1
102
RTVSPost2010Prop39
140
1.0
102
RTVSPost2010PropOp39
 70
     1
102
RTVSPost2010Prop40
 90
        0
102
RTVSPost2010PropOp40
 70
     1
102
RTVSPost2010Prop41ColorIndex
 90
       18
102
RTVSPost2010Prop41ColorRGB
 90
        0
102
RTVSPost2010PropOp41
 70
     1
102
RTVSPost2010Prop42
 90
       50
102
RTVSPost2010PropOp42
 70
     1
102
RTVSPost2010Prop43
 90
        3
102
RTVSPost2010PropOp43
 70
     1
102
RTVSPost2010Prop44ColorIndex
 90
        5
102
RTVSPost2010Prop44ColorRGB
 90
      255
102
RTVSPost2010PropOp44
 70
     1
102
RTVSPost2010Prop45
280
     0
102
RTVSPost2010PropOp45
 70
     1
102
RTVSPost2010Prop46
 90
       50
102
RTVSPost2010PropOp46
 70
     1
102
RTVSPost2010Prop47
 90
       50
102
RTVSPost2010PropOp47
 70
     1
102
RTVSPost2010Prop48
 90
       50
102
RTVSPost2010PropOp48
 70
     1
102
RTVSPost2010Prop49
280
     0
102
RTVSPost2010PropOp49
 70
     1
102
RTVSPost2010Prop50
 90
       50
102
RTVSPost2010PropOp50
 70
     1
102
RTVSPost2010Prop51ColorIndex
 90
      256
102
RTVSPost2010Prop51ColorRGB
 90
-16777216
102
RTVSPost2010PropOp51
 70
     0
102
RTVSPost2010Prop52
140
1.0
102
RTVSPost2010PropOp52
 70
     0
102
RTVSPost2010Prop53
 90
        2
102
RTVSPost2010PropOp53
 70
     1
102
RTVSPost2010Prop54
  1
strokes_ogs.tif
102
RTVSPost2010PropOp54
 70
     1
102
RTVSPost2010Prop55
280
     0
102
RTVSPost2010PropOp55
 70
     1
102
RTVSPost2010Prop56
140
1.0
102
RTVSPost2010PropOp56
 70
     1
102
RTVSPost2010Prop57
140
1.0
102
RTVSPost2010PropOp57
 70
     1
102
RTVSPropertyOp0
 70
     1
102
RTVSPropertyOp1
 70
     1
102
RTVSPropertyOp2
 70
     1
102
RTVSPropertyOp3
 70
     1
102
RTVSPropertyOp4
 70
     1
102
RTVSPropertyOp5
 70
     1
102
RTVSPropertyOp6
 70
     1
102
RTVSPropertyOp7
 70
     1
102
RTVSPropertyOp8
 70
     1
102
RTVSPropertyOp9
 70
     1
102
RTVSPropertyOp10
 70
     1
102
RTVSPropertyOp11
 70
     1
102
RTVSPropertyOp12
 70
     1
102
RTVSPropertyOp13
 70
     1
102
RTVSPropertyOp14
 70
     1
102
RTVSPropertyOp15
 70
     1
102
RTVSPropertyOp16
 70
     1
102
RTVSPropertyOp17
 70
     1
102
RTVSPropertyOp18
 70
     1
102
RTVSPropertyOp19
 70
     1
102
RTVSPropertyOp20
 70
     1
102
RTVSPropertyOp21
 70
     1
102
RTVSPropertyOp22
 70
     1
102
RTVSPropertyOp23
 70
     1
102
RTVSPropertyOp24
 70
     1
102
RTVSPropertyOp25
 70
     1
102
RTVSPropertyOp26
 70
     1
102
RTVSPropertyOp27
 70
     1
102
RTVSPropertyOp28
 70
     1
102
RTVSPropertyOp29
 70
     1
102
RTVSPropertyOp30
 70
     1
102
RTVSPropertyOp31
 70
     1
102
RTVSPropertyOp32
 70
     1
102
RTVSPropertyOp33
 70
     1
102
RTVSPropertyOp34
 70
     1
102
RTVSPropertyOp35
 70
     1
102
RTVSPropertyOp36
 70
     1
102
RTVSPropertyOp37
 70
     1
102
RTVSPropertyOp38
 70
     1
102
RTVSPropertyOp39
 70
     1
102
RTVSPropertyOp40
 70
     1
102
RTVSPropertyOp41
 70
     1
102
RTVSPropertyOp42
 70
     1
102
RTVSPropertyOp43
 70
     1
102
RTVSPropertyOp44
 70
     1
102
RTVSPropertyOp45
 70
     1
102
RTVSPropertyOp46
 70
     1
102
RTVSPropertyOp47
 70
     1
102
RTVSPropertyOp48
 70
     1
102
RTVSPropertyOp49
 70
     1
102
RTVSPropertyOp50
 70
     1
102
RTVSPropertyOp51
 70
     0
102
RTVSPropertyOp52
 70
     0
102
RTVSPropertyOp53
 70
     1
102
RTVSPropertyOp54
 70
     1
102
RTVSPropertyOp55
 70
     1
102
RTVSPropertyOp56
 70
     1
102
RTVSPropertyOp57
 70
     1
102
RTVSPropertyOp58
 70
     1
102
RTVSPropertyOp59
 70
     1
102
RTVSPropertyOp60
 70
     1
102
RTVSPropertyOp61
 70
     1
102
RTVSPropertyOp62
 70
     1
  0
ENDSEC
  0
EOF
